Oops, an error
Loading. Please wait.

Feels Like Forever Tab

43,851 views 270 this week
10 commentsread comments
1 2 3 4 5
excellent!
x 44
add to favorites
launch autoscroll
font size
0
reset
how to read this tab
guitar tuner
Tab Pro tools
  • play this tab
  • loop segment
  • change instrument
  • show fretboard
  • metronome
×
Best way to learn
"Feels Like Forever"
Autoscroll
slow
fast
+/-
esc
set tempo
stop
Contributor
Difficulty
Tuning
novice
C G C F A D
Camwearsprada
Full tab number two from me. The new album leaked so I thought I'd bang this
tab out before anyone else.

Please rate and comment any ideas to make this tab better if you have any. Cheers.

Intro Part 1 Palm muted.
(0:00-0:10)
D:---------------------------|
A:------------harmonics->-5*-|
F:------------------------5*-|
C:-----2b-----------------5*-|
G:---------------------------|
C:-220---x7-Then-play-220----|

Intro Part 2
(0:11-0:19) Play whole part twice
D:-------------------------------|
A:----------------------------5*-|
F:----------------------------5*-|
C:-220-2b-220-2b-220-2b-220---5*-|
G:-220----220----220----220------|
C:-220----220----220----220------|

Verse Palm muted.
(0:20-0:40)
D:----------------------------------------------------------------|
A:----------------------------------------------------------------|
F:----------------------------------------------------------------|
C:---------------------------------------------------------2------|
G:--------------------------0--------------------------2-5---5----|
C:-222-2b-222-2b-222-2b-222-0-222-2b-222-2b-222-2b-2-5------------|

Pre Chorus
(0:41-0:45)
D-------|
A-------|
F-------|
C-4~-7~-
G-2~-5~-
C-2~-5~-

Chorus
(0:46-1:05) Strumming pattern is easy to figure out
D:---------|
A:---------|
F:-5-------|
C:-5-7-4-7-|
G:-3-7-2-5-|
C:---7-2-0-|

Chorus End
(1:06-1:15)
D:-----------|
A:-----------|
F:-----------|
C:-220-2b----|
G:-220-------|
C:-220-------|x8

Verse 2 Palm muted.
(1:16-1:36
D:----------------------------------------------------------------|
A:----------------------------------------------------------------|
F:----------------------------------------------------------------|
C:---------------------------------------------------------2------|
G:--------------------------0--------------------------2-5---5----|
C:-222-2b-222-2b-222-2b-222-0-222-2b-222-2b-222-2b-2-5------------|

Pre Chorus 2
(1:37-1:39) Just the one note :P
C:-4~---------------------|
G:-2~---------------------|
C:-2~---------------------|

Chorus 2
(1:40-1:59) Same strumming pattern
D:---------|
A:---------|
F:-5-------|
C:-5-7-4-7-|
G:-3-7-2-5-|
C:---7-2-0-|

Bridge Thing Part 1
(2:00-2:10) Some of the strumming pattern shown
D:------------------------------------|
A:------------------------------------|
F:-5----------------------------------|
C:-5-2-0-2222-0-222-7-0-0-0000-0-000--|
G:-3-2-0-2222-0-222-5-0-0-0000-0-000--|
C:---2-0-2222-0-222-5-0-0-0000-0-000--|

Bridge Thing Part 2
(2:11-2:30)
D:-------------------------------------------------------|
A:-------------------------------------------------------|
F:-5---------------------------------------------------5-|
C:-5-2-0-2-4/5-2-0-2-4/5-0-0-0000-0-000----------------5-|
G:-3-2-0-2-----2-0-2-----0-0-0000-0-000----------------3-|
C:---2-0-2-----2-0-2-----0-0-0000-0-000-x2-then end on-3-|

Chorus outro part thing
(2:31-2:43)
D:-----------------------------------|
A:-----------------------------------|
F:-5-5-5-----------------------------|
C:-5-5-5---7-7-7---4-5-4-0-0-4-5-4---|
G:-3-3-3---7-7-7---2-2-2-2-2-2-2-2---|
C:---------7-7-7---2-2-2-2-2-2-2-2---|

Actual Outro
(2:44-3:13) Strumming pattern easy to figure out
D:---------------------------------------|
A:---------------------------------------|
F:-5-------5-----------------------------|
C:-5-7-4-7-5-7----2-2-0-2b------------0--|
G:-3-7-2-5-3-7----2-2-0---------------0--|
C:---7-2-0---7----2-2-0---x8-end-on-a-0--|
comments
print report bad tab
10 comments total. Showing first comments.
+1 reply
Audible Warfare wrote on February 5 2014, 08:50 pm

Pretty good man. Do you think you'll tab the leads?

+1 reply
CamWearsPrada wrote on February 5 2014, 10:33 pm

Maybe eventually.

0 reply
TheMackDaddy wrote on March 2 2014, 06:09 pm

verses and first part of intro it feels like the twos should be palm muted,its just a little thing but it all sounds good anyway

I want to post or [tab]
guest
You may want to rate the tab now too:
select rating
Please do not post tabs as comments. Select "correction" instead!