Oops, an error
Loading. Please wait.

Identity Disorder Tab

5,526 views 45 this week
4 commentsread comments
1 2 3 4 5
accurate
x 10
add to favorites
launch autoscroll
font size
0
reset
how to read this tab
guitar tuner
Tab Pro tools
  • play this tab
  • loop segment
  • change instrument
  • show fretboard
  • metronome
×
Best way to learn
"Identity Disorder"
Autoscroll
slow
fast
+/-
esc
set tempo
stop
Contributor
Difficulty
Tuning
intermediate
C G C F A D
Song - Identity Disorder 

Band - Of Mice and Men

Album - Restoring Force

Tuning - Drop C 

Hey guys! I learned this all by ear, 
and I think it is the best it can sound to my knowledge! 

Let me know what you think and all that! :D 
All I really got is Guitar 1. 
Cant hear too much of Guitar 2. 

DROP D WORKS AS WELL TO PLAY THIS SONG. 

READY TO ROCK? LETS GO!

0:00 - 0:12 NO GUITAR 

  Guitar 1 Intro    0:12 - 0:25
D|---------------------------------------------------------|
A|---------------------------------------------------------|
F|---------------------------------------------------------|
C|-2-2-2-2--22--5-5-5-5--55--10-10-10-10--1010--7-7-7-7-77-|
G|-2-2-2-2--22--5-5-5-5--55--10-10-10-10--1010--7-7-7-7-77-|
C|-2-2-2-2--22--5-5-5-5--55--10-10-10-10--1010--7-7-7-7-77-|


0:25 - 0:51 NO GUITAR


  Little Riffy bit  0:51 - 0:58
D|-------------------------------------------------|
A|-------------------------------------------------|
F|-------------------------------------------------|
C|----------------------7-7------------------------|
G|---------3-5--------3-5-5------------------------|
C|-2-5-7-3------2-5-7------------------------------|



   Chorus  (x4)     0:58 - 1:23
D|-------------------------------------------------|
A|-------------------------------------------------|
F|-------------------------------------------------|
C|-2------5------10------7-------------------------| 
G|-2-(x8)-5-(x8)-10-(x8)-7-(x8)--------------------|
C|-2------5------10------7-------------------------|


1:23 - 1:48 NO GUITAR


  1:48 - 1:55
(((REPEAT LITTLE RIFFY BIT)))


  1:55 - 2:20
(((REPEAT CHORUS)))



  Another Bigger Riffy Bit (x8)  2:20 - 2:46
D|-------------------------------------------------|
A|-------------------------------------------------|
F|-------------------------------------------------|
C|-------------------------------------------------|
G|---77--77--77--77--77b---------------------------|
C|-0---0---0---0---0-------------------------------|
  ((GUITAR 2 HERE IS JUST 2'S PALM MUTED. LISTEN FOR TIMING))



   Cool Harmonic Part (x4) 2:46 - 3:00           After 4th time
D|----------------------------------------------|--------------|
A|----------------------------------------------|--------------|
F|----------------------------------------------|--------------|
C|----------------------------------------------|--2~~~~~------|
G|----------------------------------------------|--2~~~~~------|
C|-2-4*-4*--2-4*-4*--2-4*-4*--2-4*-4*--2-5*-5*--|--2~~~~~------|
  NOTE: * means Natural Harmonic



(((3:00 - 3:27 -- REPEAT CHORUS)))
  

  
(((3:28 - 3:37 -- REPEAT COOL HARMONIC PART TWICE!)))



End With This  (DON'T LET RING)
D|-------------------------------------------------|
A|-------------------------------------------------|
F|-------------------------------------------------|
C|--2----------------------------------------------|
G|--2----------------------------------------------|
C|--2----------------------------------------------|
comments
print report bad tab
4 comments total. Showing first comments.
0 reply
ObviateSky wrote on March 24 2014, 06:30 pm

D|-------------------------------------------------|
A|-------------------------------------------------|
F|-------------------------------------------------|
C|----------------------7-7------------------------|
G|-------3-5----------3-5-5------------------------|
C|-2-5-7--------2-5-7------------------------------|

I think it should be this for the little riffy part instead of what you have there. Other than that, Good job man! 5 Stars! :DD

0 reply
ronhoward wrote on June 30 2014, 02:44 pm

If you listen closely I think it's more like this
D|----------------------------------------------------|
A|----------------------------------------------------|
F|----------------------------------------------------|
C|-------------------------7-7------------------------|
G|-------3-5555----------3-5-5------------------------|
C|-2-5-7-----------2-5-7------------------------------|

Other than that, excellent job!

+1 reply
msp360 wrote on December 11 2014, 12:04 am

This song is in drop d. You can tell during the breakdown thing ('Another Bigger Riffy Bit'. On this tab the notes are open C but in the song its D, and a 2C to 7G would be a hard stretch. It also makes sense because the the lowest fret on here is the 2nd fret. At least you didn't tab a dropped song in standard, like every other UltimateGuitar tab out there.

I want to post or [tab]
guest
You may want to rate the tab now too:
select rating
Please do not post tabs as comments. Select "correction" instead!