Oops, an error
Loading. Please wait.

My Understandings Tab

version 2
version 2

Whole song

Interactive

30,739 views 42 this week
5 commentsread comments
1 2 3 4 5
excellent!
x 26
add to favorites
launch autoscroll
font size
0
reset
how to read this tab
guitar tuner
Tab Pro tools
  • play this tab
  • loop segment
  • change instrument
  • show fretboard
  • metronome
Autoscroll
slow
fast
+/-
esc
set tempo
stop
Contributor
Difficulty
Tuning
novice
C G C F A D
Tabbed by: ADTRisyummy

Hey everyone, this is my first tab, nobody really got this song down right, so here is 
my take on it. Hope you enjoy

This song is in Drop C (CGCFAD)


D------------12*-----------------------|
A------------12*-----------------------|
F------------------ <--- repeat this 1-|2x
C--------------------------------------|
G--------------------------------------|
C--------------------------------------|


D---------------------------------------------------------------------|
A---------------------------------------------------------------------|
F------------0--------------------------------------------------------|
C---------4-----4-------------------12--------12/15-------------------|
G-----2--------------------------10----10-----10/13-------------------|
C--2-------------------------10---------------10/13-------------------|
                 slide here             slide here

D----------------------------------------------------------------------|
A----------------------------------------------------------------------|
F---------------0------------------------------------------------------|
C------------7-----7-----------9---------------------------------------|
G---------5-----------------7-----7------------------------------------|
C------5-----------------7------------------4----2---------------------|
                      repeat the above untill singing starts

D-----------------------------------------------------------------------|
A-----------------------------------------------------------------------|
F-----------------------------------------------------------------------|
C------4-------12--------7------9-----6---------------------------------|
G------2-------10--------5------7-----4---------------------------------|
C------2-------10--------5------7-----4---------------------------------|
      x8       x8        x8     x4    x4
                    above are the chords while singing
                 (listen to the song for strumming pattern)
         note: the above chords are the same distorted chords in the chorus
comments
print report bad tab
5 comments total. Showing first comments.
0 reply
AraThiOn wrote on October 2 2011, 04:24 am

Except the one chord , everything seems ok to me. Nice tab 5*

+3 reply
AraThiOn wrote on October 2 2011, 08:33 am

D-----------------------------------------------------------------------|
A-----------------------------------------------------------------------|
F-----------------------------------------------------------------------|
C------4-------12--------7------9-----5---------------------------------|
G------2-------10--------5------7-----3---------------------------------|
C------2-------10--------5------7-----3---------------------------------|

I hear the 533 , not 644 , maybe it's just me.

+1 reply
thesturg wrote on July 27 2013, 12:52 am

i also hear 6 strums of 997 and only 2 of 553.

I want to post or [tab]
guest
You may want to rate the tab now too:
select rating
Please do not post tabs as comments. Select "correction" instead!