Oops, an error
Loading. Please wait.

Og Loko tab

version 4
version 4

Whole song

Interactive

43 views 1 this week
no commentswrite comment
1 2 3 4 5
2 more votes to show rating
add to favorites
×
Save as Personal and add changes to this tab that will be seen only by you. Learn more ›
×
You can save this tab as Personal to edit and correct it or add notes. All changes will be seen only by you. Learn more »
launch autoscroll
font size
0
reset
how to read this tab
guitar tuner
edit
Autoscroll
slow
fast
+/-
esc
set tempo
stop
[Intro]
D|---------------------------------------------------------------------------|
A|---------------------------------------------------------------------------|
F|---------------------------------------------------------------------------|
C|---------------------------------------------------------------------------|
G|--7-7-7----------7-7-7----------3-3-3-3-3-0-3-5----------------------------|
C|--------0-3b-br0-------0-3b-br0--------------------------------------------| x6

D|---------------------------------------------------------------------------|
A|---------------------------------------------------------------------------|
F|---------------------------------------------------------------------------|
C|------------------------------------------------5--------------------------|
G|--7-7-7----------7-7-7----------3-3-3-3-3-0-3-5-3--------------------------|
C|--------0-3b-br0-------0-3b-br0--------------------------------------------|

[Verse]
D|---------------------------------------------------------------------------|
A|---------------------------------------------------------------------------|
F|---------------------------------------------------------------------------|
C|---------------------------------------------------------------------------|
G|---------------------------------------------------------------------------|
C|--0-0-0-0--0-0--0-0-0-0--0-0--0-0-0-0-0-0-0-0------------------------------| x2
PM  * * * *  * *  * * * *       * * * * * * * *

D|---------------------------------------------------------------------------|
A|---------------------------------------------------------------------------|
F|---------------------------------------------------------------------------|
C|---------------------------------------------------------------------------|
G|---------------------------------------------------------------------------|
C|--0-0-0-0--0-0--0-0-0-0--0-0--0-0-0-0-0-0-0-0------------------------------| x2

D|---------------------------------------------------------------------------|
A|---------------------------------------------------------------------------|
F|---------------------------------------------------------------------------|
C|---------------------------------------------------------------------------|
G|--5b-----------------------------------------------------------------------|
C|------0-1--0--0------------------------------------------------------------| x3

D|---------------------------------------------------------------------------|
A|---------------------------------------------------------------------------|
F|---------------------------------------------------------------------------|
C|-----------------3-3-3-3---------------------------------------------------|
G|--5b-------------1-1-1-1---------------------------------------------------|
C|------0-1--0--0------------------------------------------------------------|

[Chorus]
D|---------------------------------------------------------------------------|
A|---------------------------------------------------------------------------|
F|---------------------------------------------------------------------------|
C|--0-0-0-0--0-0--0-0-0-0--0-0--8-8-8-8--8-8--5-5-5-5--5-5-------------------|
G|--0-0-0-0--0-0--0-0-0-0--0-0--8-8-8-8--8-8--5-5-5-5--5-5-------------------|
C|--0-0-0-0--0-0--0-0-0-0--0-0--8-8-8-8--8-8--5-5-5-5--5-5-------------------|

D|---------------------------------------------------------------------------|
A|---------------------------------------------------------------------------|
F|---------------------------------------------------------------------------|
C|--0-0-0-0--0-0--0-0-0-0--0-0--3-3-3-3--3-3--5-5-5-5--5-5-------------------|
G|--0-0-0-0--0-0--0-0-0-0--0-0--3-3-3-3--3-3--5-5-5-5--5-5-------------------|
C|--0-0-0-0--0-0--0-0-0-0--0-0--3-3-3-3--3-3--5-5-5-5--5-5-------------------|

D|---------------------------------------------------------------------------|
A|---------------------------------------------------------------------------|
F|---------------------------------------------------------------------------|
C|---------------------------------------------------------------------------|
G|---------------------------------------------------------------------------|
C|--0-0-0-0--0-0-0-0--0--0-0--0-0-0-0--0-0-0-0--0--0-0-0---------------------|
PM  * * * *  * * * *  *  * *  * * * *  * * * *  *  * * *

D|---------------------------------------------------------------------------|
A|---------------------------------------------------------------------------|
F|---------------------------------------------------------------------------|
C|---------------------------------------------------------------------------|
G|---------------------------------------------------------------------------|
C|--8-8-8-8--8-8-8-8--8--8-8--5-5-5-5--5-5-5-5--5--5-5-5---------------------|
PM  * * * *  * * * *  *  * *  * * * *  * * * *  *  * * *

D|---------------------------------------------------------------------------|
A|---------------------------------------------------------------------------|
F|---------------------------------------------------------------------------|
C|---------------------------------------------------------------------------|
G|---------------------------------------------------------------------------|
C|--0-0-0-0--0-0-0-0--0--0-0--0-0-0-0--0-0-0-0--0--0-0-0---------------------|
PM  * * * *  * * * *  *  * *  * * * *  * * * *  *  * * *

D|---------------------------------------------------------------------------|
A|---------------------------------------------------------------------------|
F|---------------------------------------------------------------------------|
C|---------------------------------------------------------------------------|
G|---------------------------------------------------------------------------|
C|--3-3-3-3--3-3-3-3--3--3-3--5-5-5-5--5-5-5-5--5--5-5-5---------------------|
PM  * * * *  * * * *  *  * *  * * * *  * * * *  *  * * *


[Verse]
D|---------------------------------------------------------------------------|
A|---------------------------------------------------------------------------|
F|---------------------------------------------------------------------------|
C|---------------------------------------------------------------------------|
G|--7-7-7----------7-7-7----------3-3-3-3-3-0-3-5----------------------------|
C|--------0-3b-br0-------0-3b-br0--------------------------------------------| x4

D|---------------------------------------------------------------------------|
A|---------------------------------------------------------------------------|
F|---------------------------------------------------------------------------|
C|---------------------------------------------------------------------------|
G|---------------------------------------------------------------------------|
C|--0-0-0-0--0--0--0---0-0-0-0-0-0-0-0-0-0-0-0--0--0--0--0-0-0-0-0-0---------| x2
PM  * * * *  *  *  *   * * * * * * * * * * * *  *  *  *  * * * * * *

D|---------------------------------------------------------------------------|
A|---------------------------------------------------------------------------|
F|---------------------------------------------------------------------------|
C|---------------------------------------------------------------------------|
G|---------------------------------------------------------------------------|
C|--8-0-0-0-0--0--0-8-0-0-0-0--0--0--1-1-1-1-3-3-3-3-------------------------| x4


[Chorus]
D|---------------------------------------------------------------------------|
A|---------------------------------------------------------------------------|
F|---------------------------------------------------------------------------|
C|--0-0-0-0--0-0--0-0-0-0--0-0--8-8-8-8--8-8--5-5-5-5--5-5-------------------|
G|--0-0-0-0--0-0--0-0-0-0--0-0--8-8-8-8--8-8--5-5-5-5--5-5-------------------|
C|--0-0-0-0--0-0--0-0-0-0--0-0--8-8-8-8--8-8--5-5-5-5--5-5-------------------|

D|---------------------------------------------------------------------------|
A|---------------------------------------------------------------------------|
F|---------------------------------------------------------------------------|
C|--0-0-0-0--0-0--0-0-0-0--0-0--3-3-3-3--3-3--5-5-5-5--5-5-------------------|
G|--0-0-0-0--0-0--0-0-0-0--0-0--3-3-3-3--3-3--5-5-5-5--5-5-------------------|
C|--0-0-0-0--0-0--0-0-0-0--0-0--3-3-3-3--3-3--5-5-5-5--5-5-------------------|

D|---------------------------------------------------------------------------|
A|---------------------------------------------------------------------------|
F|---------------------------------------------------------------------------|
C|---------------------------------------------------------------------------|
G|---------------------------------------------------------------------------|
C|--0-0-0-0--0-0-0-0--0--0-0--0-0-0-0--0-0-0-0--0--0-0-0---------------------|
PM  * * * *  * * * *  *  * *  * * * *  * * * *  *  * * *

D|---------------------------------------------------------------------------|
A|---------------------------------------------------------------------------|
F|---------------------------------------------------------------------------|
C|---------------------------------------------------------------------------|
G|---------------------------------------------------------------------------|
C|--8-8-8-8--8-8-8-8--8--8-8--5-5-5-5--5-5-5-5--5--5-5-5---------------------|
PM  * * * *  * * * *  *  * *  * * * *  * * * *  *  * * *

D|---------------------------------------------------------------------------|
A|---------------------------------------------------------------------------|
F|---------------------------------------------------------------------------|
C|---------------------------------------------------------------------------|
G|---------------------------------------------------------------------------|
C|--0-0-0-0--0-0-0-0--0--0-0--0-0-0-0--0-0-0-0--0--0-0-0---------------------|
PM  * * * *  * * * *  *  * *  * * * *  * * * *  *  * * *

D|---------------------------------------------------------------------------|
A|---------------------------------------------------------------------------|
F|---------------------------------------------------------------------------|
C|--------------------------------------------------------0------------------|
G|--------------------------------------------------------0------------------|
C|--3-3-3-3--3-3-3-3--3--3-3--5-5-5-5--5-5-5-5--5--5-5-5--0------------------|
PM  * * * *  * * * *  *  * *  * * * *  * * * *  *  * * *

[Pre-Breakdown]
D|---------------------------------------------------------------------------|
A|---------------------------------------------------------------------------|
F|---------------------------------------------------------------------------|
C|---------------------------------------------------------------------------|
G|---------------------------------------------------------------------------|
C|--0-0-0-0--0-0-0-0---0-0-0-0--0-0-0-0--0-0-0-0-----------------------------|
PM  * * * *  * * * *   * * * *  * * * *  * * * *

D|---------------------------------------------------------------------------|
A|---------------------------------------------------------------------------|
F|---------------------------------------------------------------------------|
C|---------------------------------------------------------------------------|
G|---------------------------------------------------------------------------|
C|--0-0-0-0--0-0-0-0--0-0-0-0------------------------------------------------| x2
PM  * * * *  * * * *  * * * *

D|---------------------------------------------------------------------------|
A|---------------------------------------------------------------------------|
F|---------------------------------------------------------------------------|
C|---------------------------------------------------------------------------|
G|---------------------------------------------------------------------------|
C|--0-0-0-0-0-0-0-0-0--------------------------------------------------------|
PM  * * * * * * * *

[Breakdown]
D|---------------------------------------------------------------------------|
A|---------------------------------------------------------------------------|
F|---------------------------------------------------------------------------|
C|---------------------------------------------------------------------------|
G|---------------------------------------------------------------------------|
C|--0-0-0-0--0-0-0-0---0-0-0-0--000-000-000--0-0-0-0-0-0--0-0-0-0-0----------| x4
PM  * * * *  * * * *   * * * *  *** *** ***  * * * * *    * * * *


************************************

| b   Bend
| br  Bend release
| PM  Palm mute

************************************

            
            
Suggest correction
Creating personal tab
Creating personal tab
You can edit any tab online and save it as your Personal.

You can edit, replace or remove any tab part or add personal notes – all changes will be seen only by you.

Personal tabs can be accessed anytime from any device, even offline.
Learn more »
Give kudos to tab author, rate the tab!
1 2 3 4 5
comments
print report bad tab
guest
You may want to rate the tab now too:
select rating
Wanna post a correction for this tab? Suggest correction