Oops, an error
Loading. Please wait.

Ohioisonfire Bass Tab

version 1
version 1

Whole song

Interactive

1,335 views 1 this week
no commentswrite comment
1 2 3 4 5
please rate
add to favorites
launch autoscroll
font size
0
reset
guitar tuner
Tab Pro tools
  • play this tab
  • loop segment
  • change instrument
  • show fretboard
  • metronome
×
Best way to learn
"Ohioisonfire"
Autoscroll
slow
fast
+/-
esc
set tempo
stop
Contributor
Difficulty
Tuning
intermediate
C G C F A D
  Intro
F|-------------------------------------------------------------------|
C|o-----------------------------------------------------------------o|
G|o-------------------------3---------------------------------------o|
C|--0---0-0---0---0---0-1-3---3-1-3-0---0-0---0---0---5-5-5---3-3-3--|x3
    1 e + a 2 e + a 3 e + a 4 e + a 1 e + a 2 e + a 3 e + a 4 e + a

F|-----------------------------------------------------------------|
C|-----------------------------------------------------------------|
G|-------------------------3---------------------------------------|
C|-0---0-0---0---0---0-1-3---3-1-3-0---0-0---0---0-----------------|
   1 e + a 2 e + a 3 e + a 4 e + a 1 e + a 2 e + a 3 e + a 4 e + a

  Verse
F|-------------------------------------------------------------------|
C|o-----------------------------------------------------------------o|
G|o-----6---------------6---------------6---------------------------o|
C|--0-----0---1-004-0-----0---1-004-0-----0---1-004-111-111-111-111--|x2
    1 + 2 + 3 + 4 + 1 + 2 + 3 + 4 + 1 + 2 + 3 + 4 + 1 + 2 + 3 + 4 +

F|-----------------------------------------------------------------|
C|-----------------------------------------------------------------|
G|-----------------------------------------------------------------|
C|-000-000---0000000-0-0-----------000-000---0000000-0-0-----------|
   1 + 2 + 3 + 4 + 1 + 2 + 3 + 4 + 1 + 2 + 3 + 4 + 1 + 2 + 3 + 4 +

F|-----------------------------------------------------------------|
C|-----------------------------------------------------------------|
G|---------------------------------------------------------0-------|
C|-000-000---0000000-0-0-----------000-000---0000000-0-0-----------|
   1 + 2 + 3 + 4 + 1 + 2 + 3 + 4 + 1 + 2 + 3 + 4 + 1 + 2 + 3 + 4 +

  Chorus
F|-----------------------------------------------------------------|
C|-----------------------------------------------------------------|
G|-1-1-1-1-1-1-1-1-1-1-1-1-1-1-111-0-0-0-0-0-0-0-0-3-3-3-3-3-3-3-3-|
C|-----------------------------------------------------------------|
   1 + 2 + 3 + 4 + 1 + 2 + 3 + 4 + 1 + 2 + 3 + 4 + 1 + 2 + 3 + 4 +

F|-----------------------------------------------------------------|
C|-----------------------------------------------------------------|
G|-5b--------------5b--------------5b--------------------3---------|
C|-----0-1---0-4-0-----0-1---0-4-------0-1---0-4-0-1-3-0---4-0-1-3-|
   1 + 2 + 3 + 4 + 1 + 2 + 3 + 4 + 1 + 2 + 3 + 4 + 1 + 2 + 3 + 4 +

F|---------------------------------------------------------------------------------|
C|---------------------------------------------------------------------------------|
G|-5b--------------5b--------------5b--------------------3---------------3---------|
C|-----0-1---0-4-0-----0-1---0-4-------0-1---0-4-0-1-3-0---4-0-1-3-1-3-0---4-0-1-3-|
   1 + 2 + 3 + 4 + 1 + 2 + 3 + 4 + 1 + 2 + 3 + 4 + 1 + 2 + 3 + 4 + 1 + 2 + 3 + 4 +

F|---------------------------------|
C|---------------------------------|
G|---------------------------------|
C|---------------------------------|
   1 + 2 + 3 + 4 + 1 + 2 + 3 + 4 +

  Breakdown
F|-----------------------------------------------------------------|
C|-----------------------------------------------------------------|
G|-----------------------------------------------------------------|
C|-0---0---0-0---0---0-0---000000000---0---0-0---0---0-0---00000000|
   1 + 2 + 3 + 4 + 1 + 2 + 3 + 4 + 1 + 2 + 3 + 4 + 1 + 2 + 3 + 4 +

F|-----------------------------------------------------------------|
C|-----------------------------------------------------------------|
G|-----------------------------------------------------------------|
C|-1---1---1-1---1---1-1---111111110---0---0-0---0---0-0---1-1-1-1-|
   1 + 2 + 3 + 4 + 1 + 2 + 3 + 4 + 1 + 2 + 3 + 4 + 1 + 2 + 3 + 4 +

  Chorus x2
F|------------------------------------------------------------------|
C|o-----------------------------------------------------------------|
G|o-1-1-1-1-1-1-1-1-1-1-1-1-1-1-111-0-0-0-0-0-0-0-0-3-3-3-3-3-3-3-3-|
C|------------------------------------------------------------------|
    1 + 2 + 3 + 4 + 1 + 2 + 3 + 4 + 1 + 2 + 3 + 4 + 1 + 2 + 3 + 4 +

F|------------------------------------------------------------------|
C|-----------------------------------------------------------------o|
G|-----------------------------------------------------------------o|
C|-5-5-5-5-5-5-5-5-5-5-5-5-5-5-5-5-3-3---3---3---5-1-1---1---1---1--|
   1 + 2 + 3 + 4 + 1 + 2 + 3 + 4 + 1 + 2 + 3 + 4 + 1 + 2 + 3 + 4 +

  Bridge
F|-----------------------------------------------------------------|
C|-----------------------------------------------------------------|
G|-11111111111111110000000066666666----3-------1-------3---66666666|
C|---------------------------------0000--0-0000--0-0000--0---------|
   1 + 2 + 3 + 4 + 1 + 2 + 3 + 4 + 1 + 2 + 3 + 4 + 1 + 2 + 3 + 4 +

F|-----------------------------------------------------------------|
C|-----------------------------------------------------------------|
G|-----3-------1-------3---6666666611111111111111110000000066666666|
C|-0000--0-0000--0-0000--0-----------------------------------------|
   1 + 2 + 3 + 4 + 1 + 2 + 3 + 4 + 1 + 2 + 3 + 4 + 1 + 2 + 3 + 4 +

F|-----------------------------------------------------------------|
C|-----------------------------------------------------------------|
G|-----3-------1-------3---66666666----3-------1-------3---66666666|
C|-0000--0-0000--0-0000--0---------0000--0-0000--0-0000--0---------|
   1 + 2 + 3 + 4 + 1 + 2 + 3 + 4 + 1 + 2 + 3 + 4 + 1 + 2 + 3 + 4 +

  Verse
F|-------------------------------------------------------------------|
C|o-----------------------------------------------------------------o|
G|o-----6---------------6---------------6---------------------------o|
C|--0-----0---1-004-0-----0---1-004-0-----0---1-004-111-111-111-111--|x2
    1 + 2 + 3 + 4 + 1 + 2 + 3 + 4 + 1 + 2 + 3 + 4 + 1 + 2 + 3 + 4 +

F|-----------------------------------------------------------------|
C|-----------------------------------------------------------------|
G|-----------------------------------------------------------------|
C|-111-111-111-111-111-111-111-111-111-111-111-111-111-------------|
   1 + 2 + 3 + 4 + 1 + 2 + 3 + 4 + 1 + 2 + 3 + 4 + 1 + 2 + 3 + 4 +

F|-----------------------------------------------------------------|
C|-----------------------------------------------------------------|
G|-----------------------------------------------------------------|
C|---000-0-000-000-111-111-111-111-111-111-111-111-111-------------|
   1 + 2 + 3 + 4 + 1 + 2 + 3 + 4 + 1 + 2 + 3 + 4 + 1 + 2 + 3 + 4 +

F|-----------------|
C|-----------------|
G|-----------------|
C|---000-0-000-000-| 
   1 + 2 + 3 + 4 +

  Chorus x2
F|------------------------------------------------------------------|
C|o-----------------------------------------------------------------|
G|o-1-1-1-1-1-1-1-1-1-1-1-1-1-1-111-0-0-0-0-0-0-0-0-3-3-3-3-3-3-3-3-|
C|------------------------------------------------------------------|
    1 + 2 + 3 + 4 + 1 + 2 + 3 + 4 + 1 + 2 + 3 + 4 + 1 + 2 + 3 + 4 +

F|------------------------------------------------------------------|
C|-----------------------------------------------------------------o|
G|-----------------------------------------------------------------o|
C|-5-5-5-5-5-5-5-5-5-5-5-5-5-5-5-5-3-3---3---3---5-1-1---1---1---1--|
   1 + 2 + 3 + 4 + 1 + 2 + 3 + 4 + 1 + 2 + 3 + 4 + 1 + 2 + 3 + 4 +

  Outro
F|-----------------------------------------------------------------|
C|-----------------------------------------------------------------|
G|-----------------------------------------------------------------|
C|-0---0---0-0---0---0-0---000000000---0---0-0---0---0-0---00000000|
   1 + 2 + 3 + 4 + 1 + 2 + 3 + 4 + 1 + 2 + 3 + 4 + 1 + 2 + 3 + 4 +

F|-----------------------------------------------------------------|
C|-----------------------------------------------------------------|
G|-----------------------------------------------------------------|
C|-1---1---1-1---1---1-1---111111110---0---0-0---0---0-0---0-------|
   1 + 2 + 3 + 4 + 1 + 2 + 3 + 4 + 1 + 2 + 3 + 4 + 1 + 2 + 3 + 4 +

Tabbed By Jack Mills
comments
We did not receive enough feedback on this tab! Please rate:
print report bad tab
1 2 3 4 5
I want to post or [tab]
guest
You may want to rate the tab now too:
select rating
Please do not post tabs as comments. Select "correction" instead!