Oops, an error
Loading. Please wait.

Ohioisonfire Tab

version 1
version 1

Whole song

Interactive

35,053 views 51 this week
1 commentread comment
1 2 3 4 5
excellent!
x 17
add to favorites
launch autoscroll
font size
0
reset
how to read this tab
guitar tuner
Tab Pro tools
  • play this tab
  • loop segment
  • change instrument
  • show fretboard
  • metronome
×
Best way to learn
"Ohioisonfire"
Autoscroll
slow
fast
+/-
esc
set tempo
stop
Difficulty
Tuning
novice
C G C F A D
Intro:

D|-------------------------------------------------------------------------------------|
A|-------------------------------------------------------------------------------------|
F|-------------------------------------------------------------------------------------|
C|----------------------------------------5-5-5--3-3-----------------------------------|
G|-----------------3----------------------5-5-5--3-3---------------x2------------------|
C|0--0--0-0--0-1-3--3-1-3--0--0--0-0--0---5-5-5--3-3-----------------------------------|


D|------------------------------------------------------------------------------------|
A|------------------------------------------------------------------------------------|
F|------------------------------------------------------------------------------------|
C|--------------------------------------5-5-5--3-3------------------------------------|
G|0--0--0-0--0-----3-------0--0-0-0--0--5-5-5--3-3------------------------------------|
C|0--0--0-0--0-1-3--3-1-3--0--0-0-0--0--5-5-5--3-3------------------------------------|


D|-----------------------------------------------------------------------------------|
A|-----------------------------------------------------------------------------------|
F|-----------------------------------------------------------------------------------|
C|---------------------------0--0--0-0-0---------------------------------------------|
G|0--0--0-0-0--0-----3-------0--0--0-0-0---------------------------------------------|
C|0--0--0-0-0--0-1-3--3-1-3--0--0--0-0-0---------------------------------------------|


Verse 1:

D|---------------------------------------------------------------------------------------|
A|---------------------------------------------------------------------------------------|
F|---------------------------------------------------------------------------------------|
C|---------------------------------------------------------------------------------------|
G|-----6----1----4----------x3, third time finishes with---000--000--000-------x2--------|
C|0--0---0--1-00-4-----------------------------------------111--111--111-----------------|

D|------------------------------------------------------------------------------------|
A|------------------------------------------------------------------------------------|
F|------------------------------------------------------------------------------------|
C|------------------------------------------------------------------------------------|
G|000--000-0000-0-0-0----000-000-0000-0-0-0-------3-000-000-0000-0-0-0--7~------------|
C|000--000-0000-0-0-0----000-000-0000-0-0-0--2-3-0--000-000-0000-0-0-0--7~------------|


Chorus 1:

D|-----------------------------------------------------------------------------------|
A|-----------------------------------------------------------------------------------|
F|-----------------------------------------------------------------------------------|
C|8------7--------10-----------------------------------------------------------------|
G|8------7--------10-----------------------------------------------------------------|
C|8--x16-7--x8----10--x6-------------------------------------------------------------|

Verse 2:

D|------------------------------------------------------------------------------------|
A|------------------------------------------------------------------------------------|
F|------------------------------------------------------------------------------------|
C|------------------------------------------------------------------------------------|
G|5b6---------------5b6---------------5b6-------------------3---------x2--------------|
C|----0--1--0--4--0-----0--1--0--4--------0--1--0--4--0-1-3--0-1-4-1------------------|

D|------------------------------------------------------------------------------------|
A|------------------------------------------------------------------------------------|
F|------------------------------------------------------------------------------------|
C|------------------------------------------------------------------------------------|
G|------3---------------3---------0--0--0-0-0--0--0--3\-------------------------------|
C|0-1-3--0-1-4-1--0-1-3--0-1-4-1--0--0--0-0-0--0--0--3\-------------------------------|

Breakdown 1:

D|------------------------------------------------------------------------------------|
A|------------------------------------------------------------------------------------|
F|------------------------------------------------------------------------------------|
C|------------------------------------------------------------------------------------|
G|0--0--0-0--0--0-0-00000000--0--0--0-0--0--0-0-00000000------------------------------|
C|0--0--0-0--0--0-0-00000000--0--0--0-0--0--0-0-00000000------------------------------|

D|--------------------------------------------------------------------------------------|
A|--------------------------------------------------------------------------------------|
F|--------------------------------------------------------------------------------------|
C|--------------------------------------------------------------------------------------|
G|0--0--0-0--0--0-0-00000000----(1's & 0's)---------11111111----(1's)-------------------|
C|1--1--1-1--1--1-1-11111111--0--0--0-0--0--0-0-----11111111----------------------------|

Chorus 2:

D|-----------------------------------------------------------------------------------|
A|-----------------------------------------------------------------------------------|
F|-----------------------------------------------------------------------------------|
C|8--------7--------10---------5---------3--3--3-3--5--1-1-1-1-----------------------|
G|8--------7--------10---------5---------3--3--3-3--5--1-1-1-1-----------------------|
C|8---x16--7---x8---10--x8-----5----x8---3--3--3-3--5--1-1-1-1----------------x2-----|

D|-----------------------------------------------------------------------------------|
A|-----------------------------------------------------------------------------------|
F|-----------------------------------------------------------------------------------|
C|-----------------------------------------------------------------------------------|
G|-----------------------------------------------------------------------------------|
C|8"---7"----13"----0000-10--000000--8--000000-10-00-13x8----------------x2----------|

Verse 1 again

Breakdown 2:

D|-----------------------------------------------------------------------------------------------|
A|-------------takes too long to tab all the chugging, i'm sure you can figure this out by ear.--|
F|-----------------------------------------------------------------------------------------------|
C|0----------------------------------------------------------------------------------------------|
G|0----------------------------------------------------------------------------------------------|
C|1-----------------after that it goes 000-0-000-------------------------x2----------------------|

Chorus 3:

D|-----------------------------------------------------------------------------------|
A|-----------------------------------------------------------------------------------|
F|-----------------------------------------------------------------------------------|
C|8--------7--------10---------5---------3--3--3-3--5--1-1-1-1-----------------------|
G|8--------7--------10---------5---------3--3--3-3--5--1-1-1-1-----------------------|
C|8---x16--7---x8---10--x8-----5----x8---3--3--3-3--5--1-1-1-1----------------x2-----|

Outro:

D|------------------------------------------------------------------------------------|
A|------------------------------------------------------------------------------------|
F|------------------------------------------------------------------------------------|
C|------------------------------------------------------------------------------------|
G|0--0--0-0-0--0-0--00000000-----------0--0--0-0-0--0-0--00000000---------------------|
C|0--0--0-0-0--0-0--00000000---- x2----1--1--1-1-1--1-1--11111111---------------------|

D|------------------------------------------------------------------------------------|
A|------------------------------------------------------------------------------------|
F|------------------------------------------------------------------------------------|
C|------------------------------------------------------------------------------------|
G|------------------------------------------------------------------------------------|
C|0--0--0-0-0--0-0--00000000--0--0--0-0-0--0--0---------------------------------------|

That's pretty much it. I think there's a second guitar in the chorus, but I'm not gonna
bother figuring that out. Sounds good. Second verse is a bit sketchy, but it sounds good
when I play it. This is my first tab also, so don't hate. When I previewed it, it fucked 
my palm mute markers up, so you can hear when it should be palm muted.
comments
print report bad tab
1 comment total.
0 reply
thedoverkid wrote on April 16 2014, 07:20 pm

pretty solid tab!

I want to post or [tab]
guest
You may want to rate the tab now too:
select rating
Please do not post tabs as comments. Select "correction" instead!