Oops, an error
Loading. Please wait.

Ohioisonfire Tab

version 2
version 2

Whole song

Interactive

1,457 views 9 this week
no commentswrite comment
1 2 3 4 5
accurate
x 1
add to favorites
launch autoscroll
font size
0
reset
how to read this tab
guitar tuner
Tab Pro tools
  • play this tab
  • loop segment
  • change instrument
  • show fretboard
  • metronome
Autoscroll
slow
fast
+/-
esc
set tempo
stop
Difficulty
Tuning
intermediate
C G C F A D
My first tab.!
LISTEN TO SONG FOR ACCURACY WHILE PLAYING.!!!
DROP C
CGCFAD

_______LEGEND_________

  PM | PALM MUTE
  .  | PALM MUTE JUST DOTS
  /  |SLIDE UP TO 1ST FRET
BARS | |--(1st)---|----(2ND)----|---(3RD----|
(X2) | PLAY TWICE, ONCE , THREE TIMES ECT.
 "   | TREMOLO
1(h)3| HAMMER ON
  ~  | SUSTAIN
  b  | BEND
____________________________________________

D|---------------------------------------|
A|---------------------------------------|
F|---------------------------------------|(X2)
C|------------------------------555--33--|
G|-------------3----------------555--33--|
C|-0-00-0-0-1-3-3-1h3-0-00-0-0--555--33--|

D|---------------------------------------|
A|---------------------------------------|
F|---------------------------------------|
C|------------------------------555--33--|
G|-0-0-00-0----3------0-0-00-0--555--33--|
C|-0-0-00-0-1-3-3-1h3-0-0-00-0--555--33--|
PM . . .. .           . . .. .

D|----------------------------|
A|----------------------------|
F|----------------------------|
C|----------------------------|
G|-0-0-00-0----3------0-00-0-0|
C|-0-0-00-0-1-3-3-1h3-0-00-0-0|
PM . . .. .           . .. . .

D|-----------------------|
A|-----------------------|
F|-----------------------|
C|-----------------------|(X3)
G|-0--6--0--1-0-4--------|____
C|-0-----0--1-0-4--------|   __(REPEAT)
THEN                      ____
D|-----------------------|
A|-----------------------|
F|-----------------------|
C|-----------------------|(X1)
G|-0000--0000--0000--0000|
C|-1111--1111--1111--1111|
PM ....  ....  ....  ....

D|-------------------------|----------------|
A|---------(X4)------------|----------------|
F|-------------------------|-(2ND TIME)-----|
C|-------------------------|----------------|
G|-0000--0000--0000--0-0-0-|--------3-------|
C|-0000--0000--0000--0-0-0-|---2-3-0--------|
PM ....  ....  ....  . . .

D|------(___STRUM___)---------|
A|------( 8, 7 & 10 )---------|
F|----------------------------|
C|--7~~-888-777-101010--------|
G|--7~~-888-777-101010--------|
C|--7~~-888-777-101010--------|

D|----------------------------------------|
A|----------------------------------------|
F|----------------------------------------|(X2)
C|----------------------------------------|
G|-5b6-----------5b6---------5b6----------|
C|-----0-1-0-4-0-----0-1-0-4-----0-1-0-4-0|

-----------------THEN---------------------

D|-( 1ST TIME  )----|-(  2ND TIME  )------|
A|-----(2ND TIME PLAY BOTH OF THESE BARS)-|
F|------------------|---------------------|(X2)
C|------------------|---------------------|
G|------3-----------|------3--------------|(FAST
C|-0-1-3-3-0-1-4-1--|-0-1-3-3-0-1-4-1-----| TEMPO HERE.!)

D|----------------------------|
A|----------------------------|
F|----------------------------|
C|--------------------3/////--|
G|--0--0--00--0--00---3/////--|
C|--0--0--00--0--00---3/////--|
PM  .  .  ..  .  ..

D|----------------------------|
A|----------------------------|
F|----------------------------|(X2)
C|----------------------------|
G|--0--0--00--0--00--000000---|
C|--0--0--00--0--00--000000---|
PM  .  .  ..  .  ..  ......

D|----------------------------|-----------------|
A|----------------------------|-----------------|
F|----------------------------|(X1)-------------|
C|----------------------------|-------------1111|
G|--0--0--00--0--00--000000---|-------------1111|
C|--1--1--11--1--11--111111---|0-0-00-0-00--1111|
PM  .  .  ..  .  ..  ......

D|----------------------------|-------------|
A|----(      STRUM     )------|-------------|
F|----------------------------|-------------|(X2)
C|----------------------------|-------------|
G|--888---777--101010--555---33-3-3/5-11-1-1|
C|--888---777--101010--555---33-3-3/5-11-1-1|


D|----------|REPEAT THIS THEN PLAY BOTH BARS-|
A|----------|REPEAT AGAIN 2ND TIME AROUND----|
F|----------|--------------------------------|(X2)
C|----------|--------------------------------|
G|----------|--------------------------------|
C|-8"-7"-13"|000000-10-000000-8-000000-10-13"|

D|----------------------------|
A|----------------------------|
F|------(  x3  )--------------|(X2)
C|-------------------( x4 )---|
G|--0--6--0--1--0--4--0000----|
C|--0-----0--1--0--4--1111----|
PM                    ....
D|---(START FROM (x4)^^^^)------|-PAUSE-|------------|
A|-( BARS 1, 2, 3 THEN JUST )---|--THEN-|------------|
F|-( 1 AND START OF 2 THEN 3)---|--PLAY-|------------|
C|------------------------------|--THIS-|------------|
G|-0000-0000-0000-0000-0000-0000|0000--0|------------|
C|-1111-1111-1111-1111-1111-1111|1111--1|-0000-0-0000|
PM .... .... .... .... .... .... ....  .
D|------------------------|---------------|
A|---(   STRUM   )--------|---------------|
F|------------------------|---------------|(X2)
C|------------------------|---------------|
G|--888--777--101010--555-|33-3-3/5-11-1-1|
C|--888--777--101010--555-|33-3-3/5-11-1-1|

D|----------------------------|
A|----------------------------|
F|----------------------------|(X2)
C|----------------------------|
G|--0--0--00--0--00--000000---|
C|--0--0--00--0--00--000000---|
PM  .  .  ..  .  ..  ......

D|----------------------------|
A|----------------------------|
F|----------------------------|
C|----------------------------|
G|--0--0--00--0--00--000000---|
C|--1--1--11--1--11--111111---|
PM  .  .  ..  .  ..  ......

D|----------------------------|
A|----------------------------|
F|----------------------------|
C|----------------------------|
G|----------------------------|
C|--0--0--00--0--00-----------|

THE END.!
comments
We did not receive enough feedback on this tab! Please rate:
print report bad tab
1 2 3 4 5
I want to post or [tab]
guest
You may want to rate the tab now too:
select rating
Please do not post tabs as comments. Select "correction" instead!