Oops, an error
Loading. Please wait.

Poker Face Tab

version 2
version 2

Whole song

Interactive

10,225 views 1 this week
2 commentsread comments
1 2 3 4 5
excellent!
x 5
add to favorites
launch autoscroll
font size
0
reset
how to read this tab
guitar tuner
Tab Pro tools
  • play this tab
  • loop segment
  • change instrument
  • show fretboard
  • metronome
×
Best way to learn
"Poker Face"
Autoscroll
slow
fast
+/-
esc
set tempo
stop
Difficulty
Tuning
intermediate
D A D G B E
Artist: Of Mice and Men
Song: Poker Face
Cover by Lady GaGa

It's in Drop D

  hi my name is joel V. and i go to wagner and im in 9th! =D look josh im on the 
  omg!!!!!! im famous =P

  Palm mute: *
  Slide to: /


Intro:           Distortion
       (0:02)-(0:25)
E--------------------------|
B--------------------------|
G--------------------------|  6x's
D-66----------66-----44----|
A-------66-------7---------|
D----66----66------9----44-|
  ** ** ** ** ** * * ** **

Verse:
        (0:26)-(0:40)
E--------------------------|
B--------------------------|
G--------------------------|  4x's
D-6-666-66-666-6-6---4-444-|
A-6-666-66-666-6-6---4-444-|
D-6-666-66-666-6-6---4-444-|
  * *** ** *** * *   * ***

     (0:41)-(0:54)
E------------------|
B------------------|
G------------------|  4x's
D-6-666-66-666-6-6-|
A-6-666-66-666-6-6-|
D-6-666-66-666-6-6-|
  * *** ** *** * *

Chorus: i love the chorus lol
            (0:56)-(1:10)
E----------------------------------|
B----------------------------------|
G----------------------------------|  2x's
D-66666666222222229999999944444444-|
A-66666666222222229999999944444444-|
D-66666666222222229999999944444444-|

Intro:#2
    (1:11)-(1:18)
E--------------------------|
B--------------------------|
G--------------------------|  2x's
D-66----------66-----44----|
A-------66-------7---------|
D----66----66------9----44-|

Verse:
      (1:19)-(1:34)
E--------------------------|
B--------------------------|
G--------------------------|  4x's
D-6-666-66-666-6-6---4-444-|
A-6-666-66-666-6-6---4-444-|
D-6-666-66-666-6-6---4-444-|
  * *** ** *** * *   * ***

     (1:35)-(1:47)
E------------------|
B------------------|
G------------------|  4x's
D-6-666-66-666-6-6-|
A-6-666-66-666-6-6-|
D-6-666-66-666-6-6-|
  * *** ** *** * *

Chorus: i love it again! =D
     (1:50)-(2:04)
E----------------------------------|
B----------------------------------|
G----------------------------------|  2x's
D-66666666222222229999999944444444-|
A-66666666222222229999999944444444-|
D-66666666222222229999999944444444-|

Intro:#3
          (2:05)-(2:12)
E--------------------------|
B--------------------------|
G--------------------------|  2x's
D-66----------66-----44----|
A-------66-------7---------|
D----66----66------9----44-|

    (2:13)-(2:19)
E---------------------------------------------------|
B---------------------------------------------------|
G---------------------------------------------------|
D-66----------66-----44----66----------66-----9/6-6-|
A-------66-------7---------------66-------7---9/6-6-|
D----66----66------9----44----66----66------9-9/6-6-|
  ** ** ** ** ** * * ** ** ** ** ** ** ** * *

Verse:2
       (2:20)-(2:34)
E-------------------------------------|
B-------------------------------------|
G-------------------------------------|  2x's
D-66--66-66-66---66--66-66-66--666-66-|
A-66--66-66-66---66--66-66-66--666-66-|
D-66--66-66-66---66--66-66-66--666-66-|
  **  ** ** **   **  ** ** **  *** **
  (2:35)-(2:38) Distortion
E----|
B----|
G----|
D-6~-|
A-6~-|
D-6~-|

Chorus: =D
     (2:43)-(3:13)
E----------------------------------|
B----------------------------------|
G----------------------------------|  4x's
D-66666666222222229999999944444444-|
A-66666666222222229999999944444444-|
D-66666666222222229999999944444444-|

Intro:#4 Ending =(
       (3:14)-(3:19)
E---------------------------|
B---------------------------|
G---------------------------|
D-66----------66-----44-----|
A-------66-------7----------|
D----66----66------9----44~-|

Im done yeah!!!!!!!!!!!1 hope its good comment me!!!!1 lol it took 2 hours! and its only 
mins. and 27 secs. oh... jeeezus!
my url for myspace is www.myspace/pengiunlovespanda !!!!!
comments
print report bad tab
2 comments total.
+1 reply
joseluis92 wrote on December 29 2009, 02:41 am

you're such a freshman xD
nice tab though

0 reply
justjoshuaaa wrote on July 8 2012, 08:49 pm

sweet tab dude.

I want to post or [tab]
guest
You may want to rate the tab now too:
select rating
Please do not post tabs as comments. Select "correction" instead!