Oops, an error
Loading. Please wait.

Poker Face Tab

version 3
version 3

Whole song

Interactive

471 views 1 this week
1 commentread comment
1 2 3 4 5
please rate
add to favorites
launch autoscroll
font size
0
reset
how to read this tab
guitar tuner
Tab Pro tools
  • play this tab
  • loop segment
  • change instrument
  • show fretboard
  • metronome
×
Best way to learn
"Poker Face"
Autoscroll
slow
fast
+/-
esc
set tempo
stop
Contributor
Difficulty
Tuning
novice
C# G# C# F# A# D#
-------------------------------------------------------------------------------
                             Poker Face - Of Mice and Men
-------------------------------------------------------------------------------
Tabbed by: Adam Guion
Email: AdamGuion@gmail.com

Yeah, so you guys are gonna notice that this is similar to a 
couple tabs that were previously made. Unfortunately the contributor
was unregistered, but he made Version 2 so you can go check that out
if you wanna play that in Drop D. Now those tabs are 
perfect except Of Mice and Men most likely plays it in Drop C# 
and not Drop D. So all i'm really doing is transcribing it for Drop C#.

Tuning:Drop C#


Intro:           Distortion
       (0:02)-(0:25)
E----------------------------|
B----------------------------|
G----------------------------|  6x
D-77----------77-------55----|
A-------77-------8-----------|
D----77----77------10-----55-|
  ** ** ** ** ** * *   ** **

Verse:
        (0:26)-(0:40)
E--------------------------|
B--------------------------|
G--------------------------|  4x
D-7-777-77-777-7-7---5-555-|
A-7-777-77-777-7-7---5-555-|
D-7-777-77-777-7-7---5-555-|
  * *** ** *** * *   * ***

     (0:41)-(0:54)
E------------------|
B------------------|
G------------------|  4x
D-7-777-77-777-7-7-|
A-7-777-77-777-7-7-|
D-7-777-77-777-7-7-|
  * *** ** *** * *

Chorus:
            (0:56)-(1:10)
E------------------------------------------|
B------------------------------------------|
G------------------------------------------|  2x
D-7777777733333333101010101010101055555555-|
A-7777777733333333101010101010101055555555-|
D-7777777733333333101010101010101055555555-|

Intro:#2
    (1:11)-(1:18)
E---------------------------|
B---------------------------|
G---------------------------|  2x
D-77----------77-----55-----|
A-------77-------8----------|
D----77----77------10----55-|

Verse:
      (1:19)-(1:34)
E--------------------------|
B--------------------------|
G--------------------------|  4x
D-7-777-77-777-7-7---5-555-|
A-7-777-77-777-7-7---5-555-|
D-7-777-77-777-7-7---5-555-|
  * *** ** *** * *   * ***

     (1:35)-(1:47)
E------------------|
B------------------|
G------------------|  4x
D-7-777-77-777-7-7-|
A-7-777-77-777-7-7-|
D-7-777-77-777-7-7-|
  * *** ** *** * *

Chorus:
     (1:50)-(2:04)
E------------------------------------------|
B------------------------------------------|
G------------------------------------------|  2x
D-7777777733333333101010101010101055555555-|
A-7777777733333333101010101010101055555555-|
D-7777777733333333101010101010101055555555-|

Intro:#3
          (2:05)-(2:12)
E---------------------------|
B---------------------------|
G---------------------------|  2x
D-77----------77-----55-----|
A-------77-------8----------|
D----77----77------10----55-|

    (2:13)-(2:19)
E------------------------------------------------------|
B------------------------------------------------------|
G------------------------------------------------------|
D-77----------77-----55----77----------77-------10/6-6-|
A-------77-------8---------------77-------8-----10/6-6-|
D----77----77------10----55----77----77------10-10/6-6-|
  ** ** ** ** ** * * ** ** ** ** ** ** ** * *

Verse:2
       (2:20)-(2:34)
E-------------------------------------|
B-------------------------------------|
G-------------------------------------|  2x
D-77--77-77-77---77--77-77-77--777-77-|
A-77--77-77-77---77--77-77-77--777-77-|
D-77--77-77-77---77--77-77-77--777-77-|
  **  ** ** **   **  ** ** **  *** **
  (2:35)-(2:38) Distortion
E----|
B----|
G----|
D-7~-|
A-7~-|
D-7~-|

Chorus:
     (2:43)-(3:13)
E-------------------------------------------|
B-------------------------------------------|
G-------------------------------------------|  4x
D-77777777333333331010101010101010555555555-|
A-77777777333333331010101010101010555555555-|
D-77777777333333331010101010101010555555555-|

Intro:#4 Ending
       (3:14)-(3:19)
E----------------------------|
B----------------------------|
G----------------------------|
D-77----------77-----55------|
A-------77-------8-----------|
D----77----77------10----55~-|





************************************

| /   slide up
| \   slide down
| h   hammer-on
| p   pull-off
| ~   vibrato
| +   harmonic
| x   Mute note
| b   Bend
| pb  Pre-bend
| br  Bend release
| pbr Pre-bend release
| brb Bend release bend

************************************
comments
We did not receive enough feedback on this tab! Please rate:
print report bad tab
1 2 3 4 5
1 comment total.
0 reply
unpunished wrote on November 23 2012, 03:49 pm

Great Tab man! If you do requests, do you think you could put up John Deux Trois?

I want to post or [tab]
guest
You may want to rate the tab now too:
select rating
Please do not post tabs as comments. Select "correction" instead!