Oops, an error
Loading. Please wait.

Second And Sebring Bass Tab

version 2
version 2

Whole song

Interactive

15,990 views 21 this week
1 commentread comment
1 2 3 4 5
excellent!
x 17
add to favorites
launch autoscroll
font size
0
reset
guitar tuner
Tab Pro tools
  • play this tab
  • loop segment
  • change instrument
  • show fretboard
  • metronome
×
Best way to learn
"Second And Sebring"
Autoscroll
slow
fast
+/-
esc
set tempo
stop
Contributor
Tuning
C# G# C# F# A# D#
Of Mice & Men
Second and Sebring

Tuning: Drop Db
        Db-Ab-Db-Gb
       (C#-G#-C#-F#)

Intro: 2x                          First time end with:
|------------------------------| |---------------------------------|
|------------------------------| |---------------------------------|
|-------8-(12x)------10-(12x)--| |---------------------------------|
|--0-00---------0-00-----------| |-8-8-8-8-8-8-888-7-7-7-7-7-7-777-|
                                 
                                  Second time end with:
                                 |-----------------------|
                                 |-----------------------|        
                                 |-----------------------|
                                 |-8-88-888-8-7-77-777-7-|

then
|--------------------|
|--------------------|
|--------------------|
|--0~~--(0)--8~~-7//-|


|-----------------------------------------------------|
|-----------------------------------------------------|
|-------8-(12x)------12-(12x)-------------------------| 2x
|--0-00---------0-00----------8-(12x)-7-(6x)-10-(10x)-|


Breakdown:
|----------------------------|
|----------------------------|(x2)
|----------------------------|
|-0000-0000--0-0--0000-0000--|


|----------------------------|
|----------------------------|(x2)
|----------------------------|
|-0000~0000~~0~0~~0000~0000~-|


|-------------------------------------------------------|
|-------------------------------------------------------|
|-------------------------------------------------------|
|-5555~5555~~5~5~~5555~5555~8888~8888~~8~-8~~8888~8888~-|

then
|------------------------------------|
|------------------------------------|
|------------------------------------|
|-0~~78~~5~~8-7-5-0~--0~~78~~5~7\----|               End with
                                                    /        \
                                                   /          \             
                                             First 3x      Last time
|-------------------------------------|      |---------|  |----------|
|-------------------------------------|      |---------|  |----------|
|-------------------------------------|(4x)  |---------|  |--8--7--5-|
|-0-0000-0-0000-0-000-788-888-755-555-|      |-8-7-5-0-|  |----------|
                                                               2x

Breakdown 2
|--------------------------------|
|--------------------------------|(x2)
|--------------------------------|
|-0~0~--0~0~0~--0~0~0~--0~0--00--|
 
slight pause then                               End with
                                               /        \
                                              /          \
                                         First time     Second time
|--------------------------------|         |----|      |-------|
|--------------------------------|(x2)     |----|      |-------|
|--------------------------------|         |----|      |-8-7-5-|
|-0~0~--0~0~0~--0~0~0~--0~0--00--|         |-00-|      |-------|


|--------------------------------|
|--------------------------------|(x2)
|--------------------------------|
|-0~0~--0~0~0~--0~0~0~--0~0--00--|

then
|--------------------------------------------------|
|--------------------------------------------------|
|----8-(16x)--10-(16x)--8-(16x)--10-(8x)--15-(8x)--|
|--------------------------------------------------|

|------------------------------------|
|------------------------------------|(x2)
|------------------------------------| Slower strumming 
|-0-(16x)--8-(16x)--3-(16x)--2-(16x)-|

Beautiful Outro:
|---------------------|
|--------- -----------|(x2)    
|---------------------|
|-0~~--8~~--3~~--2~~--|

the end with
|-----------|
|--2h3~-----|    
|-----------|
|------0~~--|

the end.
comment and rate.
comments
print report bad tab
1 comment total.
0 reply
Peter_Smyth wrote on March 24 2014, 01:55 pm

Grat tab!

(For those that don't know how to bend zeros, just press hard on the string between the nut and the string tree or posts, preferably the middle.)

I want to post or [tab]
guest
You may want to rate the tab now too:
select rating
Please do not post tabs as comments. Select "correction" instead!