Oops, an error
Loading. Please wait.

Seven Thousand Miles For What Tab

version 1
version 1

Intro

Whole song

Interactive

18,040 views 1 this week
3 commentsread comments
1 2 3 4 5
accurate
x 10
add to favorites
launch autoscroll
font size
0
reset
how to read this tab
guitar tuner
Tab Pro tools
  • play this tab
  • loop segment
  • change instrument
  • show fretboard
  • metronome
Autoscroll
slow
fast
+/-
esc
set tempo
stop
Contributor
Tuning
C# G# C# F# A# D#
-------------------------------------------------------------------------------
                        SEVEN THOUSAND MILES FOR WHAT – Of Mice & Men
-------------------------------------------------------------------------------

 INTRO
|---------------------------------------------------------------------------|
|---------------------------------------------------------------------------|
|---------------------------------------------------------------------------|
|-10-5----------------------------------------------------------0~----------|
|-10-5-00-000000--00-000000--00-000000--00-000000--00~-000000~--0~----------|
|-10-5-00-000000--00-000000--00-000000--00-000000--00~-000000~--0~----------|
       .. ......  .. ......  .. ......  .. ......  ..  ......
|----------------------------------------------------|
|----------------------------------------------------|
|----------------------------------------------------|
|------3p0----------------------3p0------------------|
|-0-3h5----5h3-5h3---------0-3h5----5h3-5h3----------|
|-0----------------5h3-5p0-0----------------5h3-5p0--| (4x)

 CHORUS
|---------------------------------------------------------------------------|
|---------------------------------------------------------------------------|
|---------------------------------------------------------------------------|
|-10~--5555555555555555--10-------5-------10-------5-------10-------5-------|
|-8-~--5555555555555555--8--(16x)-5-(16x)-8--(16x)-5-(16x)-8--(16x)-5-(16x)-|
|-8-~--5555555555555555--8--------5-------8--------5-------8--------5-------|


|---------------------------------------------------------------|
|-6-6--6-6-66-6--6-6--6-6-66b----6-6--6-6-66-6--6-6--6-6-66b----|
|-9-9--9-9-99-9--9-9--9-9-99b----9-9--9-9-99-9--9-9--9-9-99b----|
|---------------------------------------------------------------|
|---------------------------------------------------------------|
|---------------------------------------------------------------|

|---------------------------------------------------------------|
|-6-----1010--------------------6-----10b-----------------------|
|-9-----1313--------------------9-----13b-----------------------|
|------------6h8h6-5h7h5---(3x)--------------0~-----------------|
|---8/5---------------------------8\5--------0~-----------------|
|---8/5---------------------------8\5--------0~-----------------|

|----------------------------------------------------------|
|-66-66--1010-1010---66-66--1010-1010---66-66--1010-1010---|
|-99-99--1313-1313---99-99--1313-1313---99-99--1313-1313---|
|----------------------------------------------------------|
|----------------------------------------------------------|
|----------------------------------------------------------|  (2x)

|----------------------------------------------------------|
|----------------------------------------------------------|
|----------------------------------------------------------|
|-10-10-555~---10~---5~---10~---5555555555-55-55-----------|
|-8--8--555~---8-~---5~---8-~---5555555555-55-55-----------|
|-8--8--555~---8-~---5~---8-~---5555555555-55-55-----------|
        ..                      ........
 Play the CHORUS


|------------------------------------------------------------------------|
|----------------------------------------6-------------------------------|
|----------------------------------------9-------------------------------|
|---------------------------------------------------------------------0~-|
|-0-0-0000-0-0-0000-0-0-0-0-0-0000-0-0-0---5/8--(2x)------------------0~-|  
|-0-0-0000-0-0-0000-0-0-0-0-0-0000-0-0-0---5/8--------0-0-0000--------0~-|
  . . .... . . .... . . . . . .... . . .              . . ....

************************************

| /   slide up
| \   slide down
| h   hammer-on
| p   pull-off
| ~   vibrato
| .   Mute note

************************************

There’s a few lead parts missing that were tough to hear, sorry
Comment/rate
comments
print report bad tab
3 comments total.
+3 reply
French Dude wrote on January 12 2011, 07:08 pm

This part sounds a bit off to me

 
|----------------------------------------------------|
|----------------------------------------------------|
|----------------------------------------------------|
|------3p0----------------------3p0------------------|
|-0-3h5----5h3-5h3---------0-3h5----5h3-5h3----------|
|-0----------------5h3-5p0-0----------------5h3-5p0--| (4x)



the first 5h3 should be 3h5
and the other's doesn't sound right to me, i would've tabbed it like this

 
|-----------------------------------------------------|
|-----------------------------------------------------|
|-----------------------------------------------------|
|------3p0------------------------3p0-----------------|
|-0-3h5----3h5--3--3--3-----0-3h5-----3h5--3--3--3----|
|-0--------------5--5--5p0--0----------------5--5--5p0| (4x


I might be mistaking, but this is how it sounds to me.

+1 reply
Audible Warfare wrote on February 4 2014, 10:20 pm

Lol "5h3." Because it's possible to hammer-on from 5 to 3.

+1 reply
m1ghtyguitarist wrote on March 29 2014, 10:07 am

This part doesn't sound right to me:

|----------------------------------------------------|
|----------------------------------------------------|
|----------------------------------------------------|
|------3p0----------------------3p0------------------|
|-0-3h5----5h3-5h3---------0-3h5----5h3-5h3----------|
|-0----------------5h3-5p0-0----------------5h3-5p0--| (4x)

It sounds better this way:

|------------------------------------------------------|
|------------------------------------------------------|
|------------------------------------------------------|
|------3-------------------------3---------------------|
|---3h5--5-3h5--3p0-----------3h5--5-3h5--3p0----------|
|-0----------------5-3-5-3-0-----------------5-3-5-3-0-| (4x)

I want to post or [tab]
guest
You may want to rate the tab now too:
select rating
Please do not post tabs as comments. Select "correction" instead!