Oops, an error
Loading. Please wait.

Space Enough To Grow Tab

version 1
version 1

Whole song

Interactive

4,997 views 54 this week
1 commentread comment
1 2 3 4 5
excellent!
x 3
add to favorites
launch autoscroll
font size
0
reset
how to read this tab
guitar tuner
Tab Pro tools
  • play this tab
  • loop segment
  • change instrument
  • show fretboard
  • metronome
Autoscroll
slow
fast
+/-
esc
set tempo
stop
Contributor
Difficulty
Tuning
novice
C G C F A D
-------------------------------------------------------------------------------
                             Space Enough To Grow - Of Mice and Men
-------------------------------------------------------------------------------
Tabbed by: hershey
Email: hershey.ob@gmail.com

Tuning:Drop
hey guys, this is my first tab and i learned it by ear but i'm pretty sure it's 100% 
right. i did tab the way i
like to play it, with the strings at fret position. i don't have the backing riff to the 
chorus but it's not
that hard so you can figure it out :D  if it's not and you have suggestions tell me here 
or on my youtube
channel. here's a rough recording of the song, i'll be uploading an improved version later.
https://www.youtube.com/watch?v=phKg31QPC4U like and subscribe if you like it!


Intro/Verse
d|---------------------------------------------------------------------------|
A|-----------------10----10/12-------------------10------10/12---------------|
F|--------11---------------------------11------------------------------------|
C|---------------------------------------------------------------------------|
G|---------------------------------------------------------------------------|
C|-----9-------12------------------9---------12------------------------------|

BACKING RIFF
(wait until the verse riff plays once.)
d|-----14--------------------------------------------------------------------|
A|--------------14b14--------------------------------------------------------|
F|------------------------14-------------------------------------------------|
C|-------------------------------14------------------------------------------|
G|---------------------------------------------------------------------------|
C|---------------------------------------------------------------------------|


Chorus
Left Guitar
d|---------------------------------------------------------------------------|
A|-----10--------------------------------------------------------------------|
F|---------------------------------------------------------------------------|
C|------------14-----16----9---11---12/14--11---b11--------------------------|
G|--9------------------------------------------------------------------------|
C|---------------------------------------------------------------------------|

d|---------------------------------------------------------------------------|
A|-----10----------------------------------------10--9-----------------------|
F|------------------------------------------------------9--------------------|
C|----------14------16---9-----11----12/14-----------------------------------|
G|--9------------------------------------------------------------------------|
C|---------------------------------------------------------------------------|

d|---------------------------------------------------------------------------|
A|------5--------------------------------------------------------------------|
F|---------------------------------------------------------------------------|
C|----------14------16---9-----11----14---11---11h12-------------------------|
G|--0------------------------------------------------------------------------|
C|---------------------------------------------------------------------------|


d|---------------------------------------------------------------------------|
A|-----10----------------------------------------10--9-----------------------|
F|------------------------------------------------------9--------------------|
C|----------14------16---9-----11----12/14-----------------------------------|
G|--9------------------------------------------------------------------------|
C|---------------------------------------------------------------------------|


Verse x3
Chorus x1
Verse x3
Chorus x1


************************************

| /   slide up
| \   slide down
| h   hammer-on
| p   pull-off
| ~   vibrato
| +   harmonic
| x   Mute note
| b   Bend
| pb  Pre-bend
| br  Bend release
| pbr Pre-bend release
| brb Bend release bend

************************************
comments
We did not receive enough feedback on this tab! Please rate:
print report bad tab
1 2 3 4 5
1 comment total.
0 reply
anonymouspunk wrote on May 21 2014, 11:15 am

good job man!

I want to post or [tab]
guest
You may want to rate the tab now too:
select rating
Please do not post tabs as comments. Select "correction" instead!