Oops, an error
Loading. Please wait.

The Lie Tab

238 views 24 this week
no commentswrite comment
1 2 3 4 5
2 more votes to show rating
add to favorites
launch autoscroll
font size
0
reset
how to read this tab
guitar tuner
Autoscroll
slow
fast
+/-
esc
set tempo
stop
Help us to improve Ultimate-Guitar.com Take our survey!
×
Author
Difficulty
Tuning
intermediate
C G C F A D
About this tab version
Contains all guitar riffs of the song. Was this info helpful? Yes No
Artist: Of Mice & Men
Song: The Lie
Composers: Austin Carlile, Alan Ashby and Aaron Pauley
Tabbed by: Java8
Tuning: Drop C (CGCFAD)

These are the riffs in the song. Please listen to the song for the timing.

Synth Intro

Riff 1a:
Guitar 1
D|-------------------------------------------------------------------------|
A|------11-----------------------------------------------------------------|
F|--14------14--12--14-----------------------------------------------------|
C|----------------------12--12--12--12--12--10--12--12--12--12--12---------|
G|-------------------------------------------------------------------------|
C|-------------------------------------------------------------------------|

D|-------------------------------------------------------------------------|
A|------11-----------------------------------------------------------------|
F|--14-----14--12--14--14--14--14--14--14--14^--14^--14^--14^--14^--14^----|
C|-------------------------------------------------------------------------|
G|-------------------------------------------------------------------------|
C|-------------------------------------------------------------------------|

D|-------------------------------------------------------------------------|
A|------11-----------------------------------------------------------------|
F|--14------14--12--14-----------------------------------------------------|
C|----------------------12--12--12--12--12--10--12--12--12--12--12---------|
G|-------------------------------------------------------------------------|
C|-------------------------------------------------------------------------|

D|---------------------------------------------------------------------------------|
A|------11-------------------------------------------------------------------------|
F|--14-----14--12--14--14--14--14--14--14--14--15--19--19--19--19--19--19--19--19--|
C|---------------------------------------------------------------------------------|
G|---------------------------------------------------------------------------------|
C|---------------------------------------------------------------------------------|

Riff 1b
Guitar 2:
D|---------------------------------------------------------------------------------|
A|---------------------------------------------------------------------------------|
F|---------------------------------------------------------------------------------|
C|--0~------------------------------8~-------5~------------------------------------|
G|--0~------------------------------8~-------5~------------------------------------|
C|--0~------------------------------8~-------5~------------------------------------|

D|---------------------------------------------------------------------------------|
A|---------------------------------------------------------------------------------|
F|---------------------------------------------------------------------------------|
C|--0~------------------------------8~-------10~-----------------------------------|
G|--0~------------------------------8~-------10~-----------------------------------|
C|--0~------------------------------8~-------10~-----------------------------------|


Riff 2:
Main Riff:
D|----------------------------------------------------------------------------------|
A|----------------------------------------------------------------------------------|
F|----------------------------------------------------------------------------------|
C|----------------------------------------------------------------5h7---------------|
G|--------------6--5--5------------------------------6--5--5--5h6-------------------|
C|--0--0--0--0-----------0--0--0---------0--0--0--0---------------------------------|
         PM PM          PM PM                 PM PM

D|----------------------------------------------------------------------------------|
A|----------------------------------------------------------------------------------|
F|----------------------------------------------------------------------------------|
C|----------------------------------------------------------------------------------|
G|--------------6--5--5------------------------------6--5--5---10~------------------|
C|--0--0--0--0-----------0--0--0---------0--0--0--0---------------------------------|
         PM PM          PM PM                 PM PM


Riff 3:
D|----------------------------------------------------------------------------------|
A|----------------------------------------------------------------------------------|
F|----------------------------------------------------------------------------------|
C|----------------------------------------------------------------------------------|
G|----------------------------------------------------------------------------------|
C|--0--0--0--0--0--0--0--0----0--0--0--0--0--0--0--0--------------------------------|
   PM PM    PM    PM         PM PM    PM    PM

D|----------------------------------------------------------------------------------|
A|----------------------------------------------------------------------------------|
F|----------------------------------------------------------------------------------|
C|-------------------------------------------------5h7---5h7------------------------|
G|----------------------------------------------5h6---5h6---------------------------|
C|--0--0--0--0--0--0--0--0----0--0--0--0--0--0--------------------------------------|
   PM PM    PM    PM         PM PM    PM    PM


D|----------------------------------------------------------------------------------|
A|----------------------------------------------------------------------------------|
F|----------------------------------------------------------------------------------|
C|----------------------------------------------------------------------------------|
G|----------------------------------------------------------------------------------|
C|--0--0--0--0--0--0--0--0----0--0--0--0--0--0--0--0--------------------------------|
   PM PM    PM    PM         PM PM    PM    PM

D|----------------------------------------------------------------------------------|
A|----------------------------------------------------------------------------------|
F|----------------------------------------------------------------------------------|
C|----------------------------------------------------------------------------------|
G|----------------------------------------------------------------------------------|
C|--0--0--0--0--0--0--0--0----0-----------------------------------------------------|
   PM PM    PM    PM       

Outro:
D|----------------------------------------------------------------------------------|
A|----------------------------------------------------------------------------------|
F|----------------------------------------------------------------------------------|
C|----------------------------------------------------------------------------------|
G|----------------------------------------------------------------------------------|
C|--0000-0000---0-0-0-0-0-0-0-0-0-0-0-0---------------------------------------------|
   PM.. ....   . . . . . . . . . . . .      

D|----------------------------------------------------------------------------------|
A|----------------------------------------------------------------------------------|
F|----------------------------------------------------------------------------------|
C|----------------------------------------------------------------------------------|
G|----------------------------------------------------------------------------------|
C|--0000-0000---0-0-0-0-0-0-0-0-0---------------------------------------------------|
   PM.. ....   . . . . . . . . 

Please let me know for any corrections!
Suggest correction
Give kudos to tab author, rate the tab!
1 2 3 4 5
comments
print report bad tab
guest
You may want to rate the tab now too:
select rating
Wanna post a correction for this tab? Suggest correction