Oops, an error
Loading. Please wait.

Unbreakable tab

version 1
version 1

Whole song

  • Contains the main Guitar of The Song. Tabbed by ea... Show more

Interactive

3,418 views 129 this week
1 commentread comment
1 2 3 4 5
x 9
add to favorites
×
Save as Personal and add changes to this tab that will be seen only by you. Learn more ›
×
You can save this tab as Personal to edit and correct it or add notes. All changes will be seen only by you. Learn more »
launch autoscroll
font size
0
reset
how to read this tab
guitar tuner
edit
Autoscroll
slow
fast
+/-
esc
set tempo
stop
About this tab version
Contains the main Guitar of The Song. Tabbed by ear, and sounds accurate. The chords in the chorus may be slightly different than what the actual song uses. Drop C tuning. Was this info helpful? Yes No
[Intro]
    Pm......                                         Pm......
D|------------------------------------------------|------------------------------------------|
A|------------------------------------------------|------------------------------------------|
F|------------------------------------------------|------------------------------------------|
C|-0---------10--12--0----------------------------|-0---------10--12--0----3--3--3--3--3-----|
G|-0---------10--12--0-----------8--------------7-|-0---------10--12--0----3--3--3--3--3-----|
C|-0-0-0-0-0-10--12--0----0-8-10----0-10--0-7-9---|-0-0-0-0-0-10--12--0----3--3--3--3--3-----|
    Pm......                                          Pm.....
D|------------------------------------------------|------------------------------------------|
A|------------------------------------------------|------------------------------------------|
F|------------------------------------------------|------------------------------------------|
C|-0---------10--12--0----------------------------|-0---------10--12--0----3--3--3--3--3-----|
G|-0---------10--12--0-----------8--------------7-|-0---------10--12--0----3--3--3--3--3-----|
C|-0-0-0-0-0-10--12--0----0-8-10----0-10--0-7-9---|-0-0-0-0-0-10--12--0----3--3--3--3--3-----|

D|-----------------------|
A|-----------------------|
F|-11-12--7--9--5--------|
C|-----------------------|
G|-9--10--5--7--3--------|
C|-----------------------|

[Verse]
            Pm..                                         Pm..
D|-------------------------------------------|----------------------------------------------|
A|-------------------------------------------|----------------------------------------------|
F|-------------------------------------------|----------------------------------------------|
C|-0--0--0-------0--0--0---------------3-5/7-|--0--0--0-------0--0--0--------------3-5-3\2--|
G|-0--0--0-------0--0--0-----------3-5-------|--0--0--0-------0--0--0-----------3-5---------|
C|-0--0--0---0-0-0--0--0---0-3-5-7-----------|--0--0--0---0-0-0--0--0---0-3-5-7-------------|

            Pm..                                         
D|-------------------------------------------|-------------------------------------------------|
A|-------------------------------------------|-------------------------------------------------|
F|-------------------------------------------|-------------------------------------------------|
C|-0--0--0-------0--0--0---------------3-5/7-|-------------------------------------------------|
G|-0--0--0-------0--0--0-----------3-5-------|-------------------------------------------------|
C|-0--0--0---0-0-0--0--0---0-3-5-7-----------|-3-3-3-3-3-3-3-3-3-3-3-3-3-3-3-3-5-5-5-5-5-5-5-5-|

D|--------------------|
A|--------------------|
F|--------------------|
C|--------------------|
G|--------------------|
C|-1-1-1-1-1-1-1-1/12-|

            Pm..                                         Pm..
D|-------------------------------------------|----------------------------------------------|
A|-------------------------------------------|----------------------------------------------|
F|-------------------------------------------|----------------------------------------------|
C|-0--0--0-------0--0--0---------------3-5/7-|--0--0--0-------0--0--0--------------3-5-3\2--|
G|-0--0--0-------0--0--0-----------3-5-------|--0--0--0-------0--0--0-----------3-5---------|
C|-0--0--0---0-0-0--0--0---0-3-5-7-----------|--0--0--0---0-0-0--0--0---0-3-5-7-------------|

            Pm..                                         
D|-------------------------------------------|-------------------------------------------------|
A|-------------------------------------------|-------------------------------------------------|
F|-------------------------------------------|-------------------------------------------------|
C|-0--0--0-------0--0--0---------------3-5/7-|-------------------------------------------------|
G|-0--0--0-------0--0--0-----------3-5-------|-------------------------------------------------|
C|-0--0--0---0-0-0--0--0---0-3-5-7-----------|-3-3-3-3-3-3-3-3-3-3-3-3-3-3-3-3-5-5-5-5-5-5-5-5-|

D|-----------------|
A|-----------------|
F|-----------------|
C|-----------------|
G|-----------------|
C|-1-1-1-1-1-1-1-1-|

[Bridge]
    (16x 5s)                                 (16x 5s)
D|--------------------------------|----------------------------------------|
A|--------------------------------|----------------------------------------|
F|--------------------------------|----------------------------------------|
C|--------------------------------|----------------------------------------|
G|-5-5-5-5-5-5-5-5-5-5-5-5-5-5-5-5|-3h5-5-5-5-5-5-5-5-5-5-5-5-5-5-5-5-5-3h5|
C|--------------------------------|----------------------------------------|
     (29x 1s)
D|--------------------------------|-------------------------------------------|
A|--------------------------------|-------------------------------------------|
F|--------------------------------|-------------------------------------------|
C|--------------------------------|-------------------------------------------|
G|-1-1-1-1-1-1-1-1-1-1-1-1-1-1-1-1|-1-1-1-1-1-1-1-1-1-1-1-1-------------------|
C|--------------------------------|-------------------------------------------|


[Chorus]
D|-----------------------------------|--------------------------------------------|
A|-----------------------------------|--------------------------------------------|
F|--10-10-10--12--7----7--7--7--7--7-|--14--14--14--17--12----12--12--12--12--12--|
C|--8--8--8---10--5----5--5--5--5--5-|--------------------------------------------|
G|--8--8--8---10--5----5--5--5--5--5-|--12--12--12--15--10----10--10--10--10--10--|
C|--8--8--8---10--5----5--5--5--5--5-|--------------------------------------------|

D|-----------------------------------|--------------------------------------------|
A|-----------------------------------|--------------------------------------------|
F|--10-10-10--12--7----7--7--7--7--7-|--14--14--14--17--12----12--12--12--12--12--|
C|--8--8--8---10--5----5--5--5--5--5-|--------------------------------------------|
G|--8--8--8---10--5----5--5--5--5--5-|--12--12--12--15--10----10--10--10--10--10--|
C|--8--8--8---10--5----5--5--5--5--5-|--------------------------------------------|

[Bridge 2] (Almost identical to intro) 
Pm......                                         Pm......
D|------------------------------------------------|------------------------------------------|
A|------------------------------------------------|------------------------------------------|
F|------------------------------------------------|------------------------------------------|
C|-0---------10--12--0----------------------------|-0---------10--12--0----3--3--3--3--3-----|
G|-0---------10--12--0-----------8--------------7-|-0---------10--12--0----3--3--3--3--3-----|
C|-0-0-0-0-0-10--12--0----0-8-10----0-10--0-7-9---|-0-0-0-0-0-10--12--0----3--3--3--3--3-----|
    Pm......                                          Pm.....
D|------------------------------------------------|------------------------------------------|
A|------------------------------------------------|------------------------------------------|
F|------------------------------------------------|-----------------------11-12--7--9--5-----|
C|-0---------10--12--0----------------------------|-0---------10--12--0----------------------|
G|-0---------10--12--0-----------8--------------7-|-0---------10--12--0---9--10--5--7--3-----|
C|-0-0-0-0-0-10--12--0----0-8-10----0-10--0-7-9---|-0-0-0-0-0-10--12--0----------------------|

[Verse 2]
            Pm..                                         Pm..
D|-------------------------------------------|----------------------------------------------|
A|-------------------------------------------|----------------------------------------------|
F|-------------------------------------------|----------------------------------------------|
C|-0--0--0-------0--0--0---------------3-5/7-|--0--0--0-------0--0--0--------------3-5-3\2--|
G|-0--0--0-------0--0--0-----------3-5-------|--0--0--0-------0--0--0-----------3-5---------|
C|-0--0--0---0-0-0--0--0---0-3-5-7-----------|--0--0--0---0-0-0--0--0---0-3-5-7-------------|

            Pm..                               (16x 3s)                         (8x 5s)           
D|-------------------------------------------|-------------------------------------------------|
A|-------------------------------------------|-------------------------------------------------|
F|-------------------------------------------|-------------------------------------------------|
C|-0--0--0-------0--0--0---------------3-5/7-|-------------------------------------------------|
G|-0--0--0-------0--0--0-----------3-5-------|-------------------------------------------------|
C|-0--0--0---0-0-0--0--0---0-3-5-7-----------|-3-3-3-3-3-3-3-3-3-3-3-3-3-3-3-3-5-5-5-5-5-5-5-5-|

   (8x 1s)
D|--------------------|
A|--------------------|
F|--------------------|
C|--------------------|
G|--------------------|
C|-1-1-1-1-1-1-1-1/12-|
                          Pm......                         Pm......
D|-------------------------------------------|------------------------------------------------|
A|-------------------------------------------|------------------------------------------------|
F|-------------------------------------------|------------------------------------------------|
C|-0--0--0-------0--0--0-------------0--0--0-|------0--0--0-------------0--0--0-------0--0--0-|
G|-0--0--0-------0--0--0-------------0--0--0-|------0--0--0-------------0--0--0-------0--0--0-|
C|-0--0--0---0-0-0--0--0---1--1--1---0--0--0-|--0-0-0--0--0---1--1--1---0--0--0---0-0-0--0--0-|

  Pm......  (16x 3s)                         (8x 5s)              (8x 1s)
D|-------------------------------------------|-----------------------------------|
A|-------------------------------------------|-----------------------------------|
F|-------------------------------------------|-----------------------------------|
C|-------------------------------------------|-----------------------------------|
G|-------------------------------------------|-----------------------------------|
C|-1--1--1---3-3-3-3-3-3-3-3-3-3-3-3-3-3-3-3-|-5-5-5-5-5-5-5-5-5-1-1-1-1-1-1-1-1-|

[Chorus]
D|-----------------------------------|--------------------------------------------|
A|-----------------------------------|--------------------------------------------|
F|--10-10-10--12--7----7--7--7--7--7-|--14--14--14--17--12----12--12--12--12--12--|
C|--8--8--8---10--5----5--5--5--5--5-|--------------------------------------------|
G|--8--8--8---10--5----5--5--5--5--5-|--12--12--12--15--10----10--10--10--10--10--|
C|--8--8--8---10--5----5--5--5--5--5-|--------------------------------------------|

D|-----------------------------------|--------------------------------------------|
A|-----------------------------------|--------------------------------------------|
F|--10-10-10--12--7----7--7--7--7--7-|--14--14--14--17--12----12--12--12--12--12--|
C|--8--8--8---10--5----5--5--5--5--5-|--------------------------------------------|
G|--8--8--8---10--5----5--5--5--5--5-|--12--12--12--15--10----10--10--10--10--10--|
C|--8--8--8---10--5----5--5--5--5--5-|--------------------------------------------|

[Bridge 3] (Bridge 2+) 
Pm......                                         Pm......
D|------------------------------------------------|------------------------------------------|
A|------------------------------------------------|------------------------------------------|
F|------------------------------------------------|------------------------------------------|
C|-0---------10--12--0----------------------------|-0---------10--12--0----3--3--3--3--3-----|
G|-0---------10--12--0-----------8--------------7-|-0---------10--12--0----3--3--3--3--3-----|
C|-0-0-0-0-0-10--12--0----0-8-10----0-10--0-7-9---|-0-0-0-0-0-10--12--0----3--3--3--3--3-----|
    Pm......                                          Pm.....
D|------------------------------------------------|------------------------------------------|
A|------------------------------------------------|------------------------------------------|
F|------------------------------------------------|-----------------------11-12--7--9--5-----|
C|-0---------10--12--0----------------------------|-0---------10--12--0----------------------|
G|-0---------10--12--0-----------8--------------7-|-0---------10--12--0---9--10--5--7--3-----|
C|-0-0-0-0-0-10--12--0----0-8-10----0-10--0-7-9---|-0-0-0-0-0-10--12--0--------------------0-|

D|---------------------------------|------------------------------------------|
A|--15--16--15--16--15--16--15--19-|-15--16--15--16--15--16-15--19------------|
F|---------------------------------|------------------------------------------|
C|---------------------------------|------------------------------------------|
G|---------------------------------|------------------------------------------|
C|---------------------------------|------------------------------------------|

[Verse 3]
   Pm.....                         Pm......            Pm.....           
D|----------------------------------------------------|---------------------------------------|
A|----------------------------------------------------|---------------------------------------|
F|----------------------------------------------------|---------------------------------------|
C|----------------------------------------------------|---------------------------------------|
G|----------------------------------------------------|---------------------------------------|
C|-0-0-0-0-12\0---1--10/13---0-10--0-0-0-0--10-13-12~-|-0-0-0-0--0-10-13~-13~-13~-13~-13~-13~-|

   Pm.....                         Pm......            Pm.....           
D|----------------------------------------------------|---------------------------------------|
A|----------------------------------------------------|---------------------------------------|
F|----------------------------------------------------|---------------------------------------|
C|----------------------------------------------------|---------------------------------------|
G|----------------------------------------------------|---------------------------------------|
C|-0-0-0-0-12\0---1--10/13---0-10--0-0-0-0--10-13-12~-|-0-0-0-0--0-10-13~-13~-13~-13~-13~-13~-|

   Pm.....                         Pm......            Pm.....        Pm...............         
D|----------------------------------------------------|---------------------------------|
A|----------------------------------------------------|---------------------------------|
F|----------------------------------------------------|---------------------------------|
C|----------------------------------------------------|----------------1--1--1--1--1--1-|
G|----------------------------------------------------|----------------1--1--1--1--1--1-|
C|-0-0-0-0-12\0---1--10/13---0-10--0-0-0-0--10-13-12~-|-0-0-0-0--0-10--1--1--1--1--1--1-|

   Pm.....                         Pm......            Pm.....           
D|----------------------------------------------------|---------------------------------------|
A|----------------------------------------------------|---------------------------------------|
F|----------------------------------------------------|---------------------------------------|
C|----------------------------------------------------|---------------------------------------|
G|----------------------------------------------------|---------------------------------------|
C|-0-0-0-0-12\0---1--10/13---0-10--0-0-0-0--10-13-12~-|-0-0-0-0--0-10-13~-13~-13~-13~-13~-13~-|

[Bridge 4]
    (16x 5s)                                 (16x 5s)
D|--------------------------------|----------------------------------------|
A|--------------------------------|----------------------------------------|
F|--------------------------------|----------------------------------------|
C|--------------------------------|----------------------------------------|
G|-5-5-5-5-5-5-5-5-5-5-5-5-5-5-5-5|-3h5-5-5-5-5-5-5-5-5-5-5-5-5-5-5-5-5-3h5|
C|--------------------------------|----------------------------------------|
     (32x 1s)
D|--------------------------------|--------------------------------|
A|--------------------------------|--------------------------------|
F|--------------------------------|--------------------------------|
C|--------------------------------|--------------------------------|
G|-1-1-1-1-1-1-1-1-1-1-1-1-1-1-1-1|-1-1-1-1-1-1-1-1-1-1-1-1-1-1-1--|
C|--------------------------------|--------------------------------|
    (16x 5s)                                 (16x 5s)
D|--------------------------------|----------------------------------------|
A|--------------------------------|----------------------------------------|
F|--------------------------------|----------------------------------------|
C|--------------------------------|----------------------------------------|
G|-5-5-5-5-5-5-5-5-5-5-5-5-5-5-5-5|-3h5-5-5-5-5-5-5-5-5-5-5-5-5-5-5-5-5-3h5|
C|--------------------------------|----------------------------------------|
     (29x 1s)
D|--------------------------------|-------------------------------------------|
A|--------------------------------|-------------------------------------------|
F|--------------------------------|-------------------------------------------|
C|--------------------------------|-------------------------------------------|
G|-1-1-1-1-1-1-1-1-1-1-1-1-1-1-1-1|-1-1-1-1-1-1-1-1-1-1-1-1-------------------|
C|--------------------------------|-------------------------------------------|

[Chorus]
D|-----------------------------------|--------------------------------------------|
A|-----------------------------------|--------------------------------------------|
F|---------------------7--7--7--7--7-|--14--14--14--17--12----12--12--12--12--12--|
C|---------------------5--5--5--5--5-|--------------------------------------------|
G|---------------------5--5--5--5--5-|--12--12--12--15--10----10--10--10--10--10--|
C|---------------------5--5--5--5--5-|--------------------------------------------|

D|-----------------------------------|--------------------------------------------|
A|-----------------------------------|--------------------------------------------|
F|--10-10-10--12--7----7--7--7--7--7-|--14--14--14--17--12----12--12--12--12--12--|
C|--8--8--8---10--5----5--5--5--5--5-|--------------------------------------------|
G|--8--8--8---10--5----5--5--5--5--5-|--12--12--12--15--10----10--10--10--10--10--|
C|--8--8--8---10--5----5--5--5--5--5-|--------------------------------------------|

D|-----------------------------------|--------------------------------------------|
A|-----------------------------------|--------------------------------------------|
F|--10-10-10--12--7----7--7--7--7--7-|--14--14--14--17--12----12--12--12--12--12--|
C|--8--8--8---10--5----5--5--5--5--5-|--------------------------------------------|
G|--8--8--8---10--5----5--5--5--5--5-|--12--12--12--15--10----10--10--10--10--10--|
C|--8--8--8---10--5----5--5--5--5--5-|--------------------------------------------|


D|-----------------------------------|--------------------------------------------|
A|-----------------------------------|--------------------------------------------|
F|--10-10-10--12--7----7--7--7--7--7-|--14--14--14--17--12----12--12--12--12--12--|
C|--8--8--8---10--5----5--5--5--5--5-|--------------------------------------------|
G|--8--8--8---10--5----5--5--5--5--5-|--12--12--12--15--10----10--10--10--10--10--|
C|--8--8--8---10--5----5--5--5--5--5-|--------------------------------------------|

[Outro] (Same as Verse 3)
   Pm.....                         Pm......            Pm.....           
D|----------------------------------------------------|---------------------------------------|
A|----------------------------------------------------|---------------------------------------|
F|----------------------------------------------------|---------------------------------------|
C|----------------------------------------------------|---------------------------------------|
G|----------------------------------------------------|---------------------------------------|
C|-0-0-0-0-12\0---1--10/13---0-10--0-0-0-0--10-13-12~-|-0-0-0-0--0-10-13~-13~-13~-13~-13~-13~-|

************************************
| h   Hammer-on
| /   Slide up
| \   Slide down
| ~   Vibrato
| Pm  Palm mute

************************************

            
            
Suggest correction
Creating personal tab
Creating personal tab
You can edit any tab online and save it as your Personal.

You can edit, replace or remove any tab part or add personal notes – all changes will be seen only by you.

Personal tabs can be accessed anytime from any device, even offline.
Learn more »
comments
print report bad tab
1 comment total.
0 reply
IanJBass 59 Aug 26, 2017 08:36 PM

Nice!

guest
You may want to rate the tab now too:
select rating
Wanna post a correction for this tab? Suggest correction