Oops, an error
Loading. Please wait.

Westbound And Down Bass Tab

version 1
version 1

Whole song

Interactive

1,235 views 1 this week
no commentswrite comment
1 2 3 4 5
please rate
add to favorites
launch autoscroll
font size
0
reset
guitar tuner
Tab Pro tools
  • play this tab
  • loop segment
  • change instrument
  • show fretboard
  • metronome
×
Best way to learn
"Westbound And Down"
Autoscroll
slow
fast
+/-
esc
set tempo
stop
Difficulty
Tuning
novice
C# G# C# F# A# D#
Not that hard of a song for bass, I'd highly recommend you use a pick for this song. I'm
pretty sure that this tab is 97% correct.

Tuning: Drop C# 

Intro: Play as many times as needed. (After the guitar plays first of course and then
the whole band comes in.)

F#-----------------------------|
C#-----------------------------|
G#-66------------66------------|
C#---0--1-0-111-0--0--1-0-1111-|

Verse:
F#------------------------------------------------|
C#------------------------------------------------|
G#------------------------------------------------|
C#----------8-5--------1-1-------8-5------1-1-----|

And then: 2x
F#-----------------------------|
C#-----------------------------|
G#-----------------------------|
C#-0-35035---8-5-0-35035---1-1-|

And then:
F#--------------------------------|
C#--------------------------------|
G#--------------------------------|
C#-5/-------5-5/---5-3-0-1-111----|(2x)

Chorus: 2x
F#---------------------------------|
C#---------------------------------|
G#---------------------------------|
C#-1(13x)-3-3-5(13x)-8(13x)-3(13---|x)

1st Breakdown: (Play as many times as needed.)
F#--------------------------------------------------|
C#--------------------------------------------------|
G#--------------------------------------------------|
C#-0-1-0-1-0-00--0-1-0-3-1-0-1-0-1-0-00--0-00--0-00-|

And then:
F#------------------------------------------------------------|
C#------------------------------------------------------------|
G#------------------------------------------------------------|
C#-5-5-5-5-5-5-5-5-5-5-5-5-5-5-5-555~~~7~~~8~~~55-0-1-0-111-0-|
(After you play the multiple 5's, then you play the 2nd part 2x)

Play this as many times as needed:
F#----------------|
C#----------------|
G#----------------|
C#-55-0-1-0-111-0-|

Chorus: 2x
F#---------------------------------|
C#---------------------------------|
G#---------------------------------|
C#-1(13x)-3-3-5(13x)-8(13x)-3(13---|x)

2nd Breakdown: Play as much as needed. (Wait after guitar plays by itself.)
F#-------------------------------|
C#-------------------------------|
G#-------------------------------|
C#-0-5-410-5-410-1-0-5-410-1-1-1-|

Pause for guitar to do it's little riff.

And then:
F#----------------------------------------------------------|
C#----------------------------------------------------------|
G#----------------------------------------------------------|
C#-8-5-03503503530-1-1-1-03503503530--8-5-03503503530-1-1-1-|

Chorus/Outro:
F#----------------------------------------|
C#----------------------------------------|
G#----------------------------------------|
C#-1(13x)-3-3-5(13x)-8(13x)-3(11x)-1-3-5--|
comments
We did not receive enough feedback on this tab! Please rate:
print report bad tab
1 2 3 4 5
I want to post or [tab]
guest
You may want to rate the tab now too:
select rating
Please do not post tabs as comments. Select "correction" instead!