Oops, an error
Loading. Please wait.

Westbound And Down Bass Tab

version 2
version 2

Whole song

Interactive

964 views 3 this week
no commentswrite comment
1 2 3 4 5
please rate
add to favorites
launch autoscroll
font size
0
reset
guitar tuner
Tab Pro tools
  • play this tab
  • loop segment
  • change instrument
  • show fretboard
  • metronome
×
Best way to learn
"Westbound And Down"
Autoscroll
slow
fast
+/-
esc
set tempo
stop
Contributor
Tuning
C# G# C# F# A# D#
[0:10]
F#|-----------------|
C#|-----------------|[x8]
G#|-6---------------|
C#|---0-1-00-1-0----|

F#|---------------------------------------|
C#|---------------------------------------|
G#|---------------------------------------|
C#|-----8-5-0-----1-1-0------8-5-0----1-1-|

F#|--------------------------------------------------------------------|
C#|--------------------------------------------------------------------|
G#|--------------------------------------------------------------------|
C#|-0-3-5-0-3-5--8-5--0-3-5-0-3-5---1-1--0-3-5-0-3-5--8-5--0-3-5-0-3-5-|

F#|---------|
C#|---------|
G#|---------|
C#|-8-5--35-|

F#|--------------------------|
C#|--------------------------|[x2]
G#|--------------------------|
C#|-5\--5-5\------5-00--1-1--|


F#|--------------------------------------------|
C#|--------------------------------------------|[x2]
G#|--------------------------------------------|
C#|--1[x14]--3-3--5[x16]----8[x16]----3[x16]---|

F#|---------------------------------------------------|
C#|---------------------------------------------------|[x3]
G#|---------------------------------------------------|
C#|-0-1-0-1-0-00--0-1-0-3-1-0--1-0-1-0-00--0-00--0-00-|

F#|----------------------------------------------|
C#|----------------------------------------------|
G#|----------------------------------------------|
C#|-0-1-0-1-0-00--0-1-0-3-1-0--1-0-1-00--33333333|

F#|-------------------------------------|
C#|-------------------------------------|[X2]
G#|-------------------------------------|
C#|-5~-7~-8~--5-0-1-00-1-0-5-0-1-00-1-0-|


F#|-----------------------------|
C#|-----------------------------|
G#|-----------------------------|
C#|-5-0-1-00-1-0---5-0-1-00-1-0-|

F#|--------------------------------------------|
C#|--------------------------------------------|[x2]
G#|--------------------------------------------|
C#|--1[x14]--3-3--5[x16]----8[x16]----3[x16]---|

   [Come in at 2:52]
F#|-----------------------------------------|
C#|-----------------------------------------|[x4]
G#|-----------------------------------------|
C#|-0--8-0-5-0---8-0-5-0-1---8-0-5-0--1-1-1-|


F#|-------------------------------------------------------------------------------------|
C#|-------------------------------------------------------------------------------------|
G#|-------------------------------------------------------------------------------------|
C#|-8-5-0-3-5-0-3-5-0-3-5-0-3-1-1-0-3-5-0-3-5-0-3-5-0-3-8-5-0-3-5-0-3-5-0-3-5-0-3-1-1---|

F#|-------------------------------------------------|
C#|-------------------------------------------------|
G#|-------------------------------------------------|
C#|--1[x14]--3-3--5[x16]----8[x16]---3[x10]--1-3-5\-|
comments
We did not receive enough feedback on this tab! Please rate:
print report bad tab
1 2 3 4 5
I want to post or [tab]
guest
You may want to rate the tab now too:
select rating
Please do not post tabs as comments. Select "correction" instead!