Oops, an error
Loading. Please wait.

When You Cant Sleep At Night tab

version 10
version 10

Whole song

Interactive

114 views 6 this week
no commentswrite comment
1 2 3 4 5
3 more votes to show rating
add to favorites
×
Save as Personal and add changes to this tab that will be seen only by you. Learn more ›
×
You can save this tab as Personal to edit and correct it or add notes. All changes will be seen only by you. Learn more »
launch autoscroll
font size
0
reset
how to read this tab
guitar tuner
edit
Autoscroll
slow
fast
+/-
esc
set tempo
stop
When You Can't Sleep at Night by Of Mice & Men

The song sounds great and has a lot of repetition, so take the pieces I give you and listen to the song 
For the pattern of the chunks of the song

Drop C tuning (CGCFAD)

X=Muted
/=Slide Down
\=Slide Up


Intro/ Chorus (Played with down strums)
D|--xxxxxxxxxxxxxxxxxxxxxxxxx--|
A|--xxxxxxxxxxxxxxxxxxxxxxxxx--|
F|--9/11\9/11\9\6-4/6/9-2/4/6--|
C|--xxxxxxxxxxxxxxxxxxxxxxxx-4-|
G|--0---------0-0-0-----0----0-|
C|--0---------0-0-0-----0----0-|

D|--2------2-------------------|
A|---2------2------------------|
F|-2--2-2----2-----------------|
C|-----2------2----------------|
G|-----------------------------|
C|-----------------------------|

Verse/Interlude
D|-5--5--5--5---4--4-4--4------|
A|--5--5--5--5---5--5-5--5-----|
F|---6-----6------6----6-------|
C|-----------------------------|
G|-----------------------------|
C|-----------------------------|

That's it :), like I said before, the song has a lot of repetition in several parts and all you have to do 
now is listen to it and find where to put what is in this tab, cheers!
Suggest correction
Creating personal tab
Creating personal tab
You can edit any tab online and save it as your Personal.

You can edit, replace or remove any tab part or add personal notes – all changes will be seen only by you.

Personal tabs can be accessed anytime from any device, even offline.
Learn more »
Give kudos to tab author, rate the tab!
1 2 3 4 5
comments
print report bad tab
guest
Wanna post a correction for this tab? Suggest correction