Oops, an error
Loading. Please wait.

When You Cant Sleep At Night Tab

version 3
4,678 views 3 this week
2 commentsread comments
1 2 3 4 5
accurate
x 4
add to favorites
launch autoscroll
font size
0
reset
how to read this tab
guitar tuner
Tab Pro tools
  • play this tab
  • loop segment
  • change instrument
  • show fretboard
  • metronome
×
Best way to learn
"When You Cant Sleep At Night"
Autoscroll
slow
fast
+/-
esc
set tempo
stop
Contributor
Difficulty
novice
Check out my cover for this song on Youtube
http://www.youtube.com/watch?v=HijFzRTpW3I

nh=Natural Harmonic
the main riff of the song is
E-----------------------------------------------------0-------------------|
B-------------------------------------------------0------0--nh12----------|
G--7/9-7/9-7-4-------------7--------4-------------------------------------|
D----------------------7h9-------5h7--------------------------------------|
A--------------------------------------7----------------------------------|
E-------------------------------------------------------------------------|


the other parts are:
Play this
E---3-------3----3-----3--------------------------------------------------|
B------3------3----3------3-----------------------------------------------|
G--------4------------4---------------------------------------------------|
D-------------------------------------------------------------------------|
A-------------------------------------------------------------------------|
E-------------------------------------------------------------------------|

Then this:
E---2------2----2------2--------------------------------------------------|
B------3------3----3------3-----------------------------------------------|
G--------4------------4---------------------------------------------------|
D-------------------------------------------------------------------------|
A-------------------------------------------------------------------------|
E-------------------------------------------------------------------------|

After this play the main riff again twice then Am and C for the intense part. then 
repeat. Hope this helped
comments
print report bad tab
2 comments total.
0 reply
Brooklyn_Razorb wrote on July 12 2013, 05:45 pm

No. Just no.

0 reply
kitsune389 wrote on May 28 2014, 01:08 am

Yes. Just yes.

I want to post or [tab]
guest
You may want to rate the tab now too:
select rating
Please do not post tabs as comments. Select "correction" instead!