Oops, an error
Loading. Please wait.

When You Cant Sleep At Night Tab

version 4
19,044 views 96 this week
no commentswrite comment
1 2 3 4 5
accurate
x 8
add to favorites
launch autoscroll
font size
0
reset
how to read this tab
guitar tuner
Tab Pro tools
  • play this tab
  • loop segment
  • change instrument
  • show fretboard
  • metronome
×
Best way to learn
"When You Cant Sleep At Night"
Autoscroll
slow
fast
+/-
esc
set tempo
stop
Contributor
Difficulty
novice
-------------------------------------------------------------------------------
                             When You Can't Sleep At Night - Of Mice and Men
-------------------------------------------------------------------------------
Tabbed by: rockobsesse  
Email: kelseyluo@hotmail.com

Tuning: Standard

This is my guitar tab version of this incredibly beautiful song by Of Mice and Men.

Intro/Verse/Chorus/Outro
E|-----------------------------0-----7-----0-----------------|
B|3/5-3/5-3p0-----3--------------0-----------0---------------|
G|------------2/4---0h2/4------------------------------------|
D|---------------------------2-----2-----2-----2-------------|
A|-----------------------------------------------------------|
E|------------------------0----------------------------------|


e|3-----3-------3-----3-------2-----2-------2--------2-------|
B|--------0-------------0-------------3----------------3-----|
G|----0-------0-------------0---0-2-----2------0---2-----2---|
D|--2-------2-------2-----2---------------4------4---------4-|
A|-----------------------------------------------------------|
E|-----------------------------------------------------------|

e|3-----3-------3-----3-------2-----2-------2---------5------|
B|--------0-------------0-------------3---------------7------|
G|----0-------0-------------0---0-2-----2------0---2--7------|
D|--2-------2-------2-----2---------------4------4----7------|
A|----------------------------------------------------5------|
E|-----------------------------------------------------------|

Bridge

e|5-55-5555-555-5555------3-33-3333-333-3333-----------------|
B|5-55-5555-555-5555------5-55-5555-555-5555-----------------|
G|5-55-5555-555-5555--x3--5-55-5555-555-5555--x3-------------|
D|7-77-7777-777-7777------5-55-5555-555-5555-----------------|
A|7-77-5555-555-5555------3-33-3333-333-3333-----------------|
E|5-55-5555-555-5555-----------------------------------------|

e|5-55-5555-555-5555--3--------------------------------------|
B|5-55-5555-555-5555--5--------------------------------------|
G|5-55-5555-555-5555--5--------------------------------------|
D|7-77-7777-777-7777--5--------------------------------------|
A|7-77-5555-555-5555--3--------------------------------------|
E|5-55-5555-555-5555-----------------------------------------|

************************************

| /   slide up
| \   slide down
| h   hammer-on
| p   pull-off
| ~   vibrato
| +   harmonic
| x   Mute note
| b   Bend
| pb  Pre-bend
| br  Bend release
| pbr Pre-bend release
| brb Bend release bend

************************************
comments
print report bad tab
I want to post or [tab]
guest
You may want to rate the tab now too:
select rating
Please do not post tabs as comments. Select "correction" instead!