Oops, an error
Loading. Please wait.

When You Cant Sleep At Night Tab

version 5
27,008 views 135 this week
2 commentsread comments
1 2 3 4 5
excellent!
x 32
add to favorites
launch autoscroll
font size
0
reset
how to read this tab
guitar tuner
Tab Pro tools
  • play this tab
  • loop segment
  • change instrument
  • show fretboard
  • metronome
×
Best way to learn
"When You Cant Sleep At Night"
Autoscroll
slow
fast
+/-
esc
set tempo
stop
Contributor
Difficulty
intermediate
-------------------------------------------------------------------------------
               When You Cant Sleep At Night  - Of Mice & Men
-------------------------------------------------------------------------------
Tabbed by: xHearts9
E-mail: o.woodey101@gmail.com

Please e-mail me if you find any mistakes! Thank you. (:

Tuning:Standard

Intro(x2)
E|-----------------------------0-----------0-----------|
B|3/5-3/5-3p0-----3--------------0---0-------0---0-----|
G|------------2/4---0h2/4------------------------------|
D|---------------------------2-----2-----2-----2-------|
A|-----------------------------------------------------|
E|------------------------0----------------------------|

Chorus
e|3-----3-------3-----3-------2-----2-------2--------2-------|
B|--------0-------------0-------------3----------------3-----|
G|----0-------0-------------0---0-2-----2------0---2-----2---|
D|--2-------2-------2-----2---------------4------4---------4-|
A|-----------------------------------------------------------|
E|-----------------------------------------------------------|

e|3-----3-------3-----3-------2-----2-------2---------5------|
B|--------0-------------0-------------3---------------7------|
G|----0-------0-------------0---0-2-----2------0---2--7------|
D|--2-------2-------2-----2---------------4------4----7------|
A|----------------------------------------------------5------|
E|-----------------------------------------------------------|

Verse(x2)
E|-----------------------------0-----------0-----------|
B|3/5-3/5-3p0-----3--------------0---0-------0---0-----|
G|------------2/4---0h2/4------------------------------|
D|---------------------------2-----2-----2-----2-------|
A|-----------------------------------------------------|
E|------------------------0----------------------------|

Chorus
e|3-----3-------3-----3-------2-----2-------2--------2-------|
B|--------0-------------0-------------3----------------3-----|
G|----0-------0-------------0---0-2-----2------0---2-----2---|
D|--2-------2-------2-----2---------------4------4---------4-|
A|-----------------------------------------------------------|
E|-----------------------------------------------------------|

e|3-----3-------3-----3-------2-----2-------2---------5------|
B|--------0-------------0-------------3---------------7------|
G|----0-------0-------------0---0-2-----2------0---2--7------|
D|--2-------2-------2-----2---------------4------4----7------|
A|----------------------------------------------------5------|
E|-----------------------------------------------------------|

Verse(x2)
E|-----------------------------0-----------0-----------|
B|3/5-3/5-3p0-----3--------------0---0-------0---0-----|
G|------------2/4---0h2/4------------------------------|
D|---------------------------2-----2-----2-----2-------|
A|-----------------------------------------------------|
E|------------------------0----------------------------|

Chorus
e|3-----3-------3-----3-------2-----2-------2--------2-------|
B|--------0-------------0-------------3----------------3-----|
G|----0-------0-------------0---0-2-----2------0---2-----2---|
D|--2-------2-------2-----2---------------4------4---------4-|
A|-----------------------------------------------------------|
E|-----------------------------------------------------------|

e|3-----3-------3-----3-------2-----2-------2---------5------|
B|--------0-------------0-------------3---------------7------|
G|----0-------0-------------0---0-2-----2------0---2--7------|
D|--2-------2-------2-----2---------------4------4----7------|
A|----------------------------------------------------5------|
E|-----------------------------------------------------------|

Bridge(x3)
e|---------------------------------------------------------------------|  
B|-------0--------------0----------------------------------------------|
G|---------------------------------------------------------------------|
D|----7----7---------7-----7------------9--12--10----------9--12--10---|
A|--7--------7-----7---------7-----10-----------------10---------------|
E|5--------------5---------------8----8-------------8----8-------------|

e|---------------------------------3---|  
B|-------0--------------0----------5---|
G|---------------------------------5---|
D|----7----7---------7-----7-------5---| (x1)
A|--7--------7-----7---------7-----3---|
E|5--------------5---------------------|

OR

[Alternate Bridge(x3)]
e|-----------------------------------------------------------------|
B|-------0--------------0------------------------------------------|
G|---------------------------------------4--7--5-------------------|
D|----7----7---------7-----7---------5-----------(x2)--------------|
A|--7--------7-----7---------7-----3---3---------------------------|
E|5--------------5-------------------------------------------------|

e|---------------------------------3---|  
B|-------0--------------0----------5---|
G|---------------------------------5---|
D|----7----7---------7-----7-------5---| (x1)
A|--7--------7-----7---------7-----3---|
E|5--------------5---------------------|

OR

[Alternate Bridge(x3)]
e|-----------------------------------------------------------------|
B|-------0--------------0-----------------3--1---------------------|
G|-----------------------------------------------------------------|
D|----7----7---------7-----7---------5-----------(x2)--------------|
A|--7--------7-----7---------7-----3---3---------------------------|
E|5--------------5-------------------------------------------------|

e|---------------------------------3---|  
B|-------0--------------0----------5---|
G|---------------------------------5---|
D|----7----7---------7-----7-------5---| (x1)
A|--7--------7-----7---------7-----3---|
E|5--------------5---------------------|


Verse
e|3-----3-------3-----3-------2-----2-------2--------2-------|
B|--------0-------------0-------------3----------------3-----|
G|----0-------0-------------0---0-2-----2------0---2-----2---|
D|--2-------2-------2-----2---------------4------4---------4-| (x3)
A|-----------------------------------------------------------|
E|-----------------------------------------------------------|

e|3-----3-------3-----3-------2-----2-------2---------5------|
B|--------0-------------0-------------3---------------7------|
G|----0-------0-------------0---0-2-----2------0---2--7------|
D|--2-------2-------2-----2---------------4------4----7------| (x1)
A|----------------------------------------------------5------|
E|-----------------------------------------------------------|

Verse(x1)
E|-----------------------------0-----------0-----------|
B|3/5-3/5-3p0-----3--------------0---0-------0---0-----|
G|------------2/4---0h2/4------------------------------|
D|---------------------------2-----2-----2-----2-------|
A|-----------------------------------------------------|
E|------------------------0----------------------------|


E|-----------------------------------------------------|
B|3/5-3/5-3p0-----3------------------------------------|
G|------------2/4---0h2/4------------------------------|
D|-----------------------------------------------------|
A|-----------------------------------------------------|
E|-------------------------0---------------------------|
************************************

| /   slide up
| \   slide down
| h   hammer-on
| p   pull-off
| ~   vibrato
| +   harmonic
| x   Mute note
| b   Bend
| pb  Pre-bend
| br  Bend release
| pbr Pre-bend release
| brb Bend release bend

************************************
comments
print report bad tab
2 comments total.
0 reply
AJmmmm wrote on April 14 2013, 10:51 pm

The open E sounds better if you okay it second fret on D string

0 reply
lilkdawg200 wrote on June 24 2013, 06:41 pm

http://www.youtube.com/watch?v=944x6lVRmOQ

I want to post or [tab]
guest
You may want to rate the tab now too:
select rating
Please do not post tabs as comments. Select "correction" instead!