Oops, an error
Loading. Please wait.

You Make Me Sick Bass Tab

version 1
version 1

Whole song

Interactive

1,477 views 12 this week
no commentswrite comment
1 2 3 4 5
accurate
x 3
add to favorites
launch autoscroll
font size
0
reset
guitar tuner
Tab Pro tools
  • play this tab
  • loop segment
  • change instrument
  • show fretboard
  • metronome
×
Best way to learn
"You Make Me Sick"
Autoscroll
slow
fast
+/-
esc
set tempo
stop
Contributor
Difficulty
Tuning
intermediate
C G C F A D
Here is the bass tab for the song "You Make Me Sick" by Of Mice & Men. Not hard of a
song at all but it's pretty fun to play. ENJOY!

F |-------|-------|-------|-------|-------|-------|-------|----------|
C |-------|-------|-------|-------|-------|-------|-------|----------|
G |-------|-------|-------|-------|-------|-------|-------|----------|
C |-------|-------|-------|-------|--0L---|--0L---|--0L---|--0-------|


----------------------------------------------------|
----------------------------------------------------|
----------------------------------------------------|
--0--4--3--0--2--0--2--3--0--4--3--0--2--0--2--3----|


----------------------------------------------------|
----------------------------------------------------|
----------------------------------------------------|
--0--4--3--0--2--0--2--3--0--4--3--0--2--0--2--3----|


----------------------------------------------------|
----------------------------------------------------|
----------------------------------------------------|
--0--4--3--0--2--0--2--3--0--4--3--0--2--0--2--3----|


----------------------------------------------------|
----------------------------------------------------|
----------------------------------------------------|
--0--4--3--0--2--0--2--3--0--4--3--0----------------|


----------------------------------------------------|
----------------------------------------------------|
----------------------------------------------------|
--0--4--3--0--2--0--2--3--0--4--3--0--2--0--2--3----|


----------------------------------------------------|
----------------------------------------------------|
----------------------------------------------------|
--0--4--3--0--2--0--2--3--0--4--3--0--2--0--2--3----|


----------------------------------------------------|
----------------------------------------------------|
----------------------------------------------------|
--0--4--3--0--2--0--2--3--0--4--3--0--2--0--2--3----|


----------------------------------------------------|
----------------------------------------------------|
----------------------------------------------------|
--0--4--3--0--2--0--2--3--0--4--3--0--2--0--2--3----|


----------------------------------------------------|-------|
----------------------------------------------------|-------|
----------------------------------------------------|-------|
--0-----------------------------0-----0-----0-------|--0----|


----------------------------------------------------|
----------------------------------------------------|
----------------------------------------------------|
--2--0--0--3--0--0--4--0--0--3--0--0--2--0--3--0----|


----------------------------------------------------|
----------------------------------------------------|
--------------------------------------1h-3----------|
--2--0--0--3--0--0--4--0--0--3--0--0--------3--0----|


----------------------------------------------------|
----------------------------------------------------|
----------------------------------------------------|
--2--0--0--3--0--0--4--0--0--3--0--0--2--0--3--0----|


----------------------------------------------------|
----------------------------------------------------|
--------------------------------------1h-3----------|
--2--0--0--3--0--0--4--0--0--3--0--0--------3--0----|


----------------------------------------------------|
----------------------------------------------------|
----------------------------------------------------|
--0--0--0--0--0--0--------0--0--0--0--0--0----------|


----------------------------------------------------|
----------------------------------------------------|
----------------------------------------------------|
--0--0--0--0--0--0--------0--0--0--0--0--0----------|


----------------------------------------------------|-------|
----------------------------------------------------|-------|
--------------------------------------1h-3----------|-------|
--2--0--0--3--0--0--4--0--0--3--0--0--------3--0----|-------|

                                                       =  =
----------------------------------------------------|----------|
----------------------------------------------------|----------|
----------------------------------------------------|--3--6----|
--0--0--0--13~---0--------0--0--0--13~---0----------|----------|


----------------------------------------------------|----------|
----------------------------------------------------|----------|
----------------------------------------------------|----------|
--0--0--0--13~---0--------0--0--0--13~---0----------|--8--7----|

                                                 =  =
----------------------------------------------------|----------|
----------------------------------------------------|----------|
----------------------------------------------------|--3--6----|
--0--0--0--13~---0--------0--0--0--13~---0----------|----------|


----------------------------------------------------|
----------------------------------------------------|
----------------------------------------------------|
--0--0--0--13~---0--------0--0--0--13~---0----------|


----------------------------|
----------------------------|
----------------------------|
--8-----------7-------------|


----------------------------------------------------|
----------------------------------------------------|
----------------------------------------------------|
--2--0--0--3--0--0--4--0--0--3--0--0--2--0--3--0----|


----------------------------------------------------|
----------------------------------------------------|
--------------------------------------1h-3----------|
--2--0--0--3--0--0--4--0--0--3--0--0--------3--0----|


----------------------------------------------------|
----------------------------------------------------|
----------------------------------------------------|
--2--0--0--3--0--0--4--0--0--3--0--0--2--0--3--0----|


----------------------------------------------------|
----------------------------------------------------|
--------------------------------------1h-3----------|
--2--0--0--3--0--0--4--0--0--3--0--0--------3--0----|


----------------------------------------------------|
----------------------------------------------------|
----------------------------------------------------|
--2--0--0--3--0--0--4--0--0--3--0--0--2--0--3--0----|


----------------------------------------------------|
----------------------------------------------------|
--------------------------------------1h-3----------|
--2--0--0--3--0--0--4--0--0--3--0--0--------3--0----|


----------------------------------------------------|
----------------------------------------------------|
----------------------------------------------------|
--2--0--0--3--0--0--4--0--0--3--0--0--2--0--3--0----|


----------------------------------------------------|
----------------------------------------------------|
--------------------------------------1h-3----------|
--2--0--0--3--0--0--4--0--0--3--0--0--------3--0----|


----------------------------------------------------|
----------------------------------------------------|
----------------------------------------------------|
--0--0--0-----0--0-----0--0-----0--0-----0--0-------|


----------------------------------------------------|
----------------------------------------------------|
----------------------------------------------------|
--0--0--0-----0--0-----0--0-----0--0-----0--0-------|


----------------------------------------------------|-------|
----------------------------------------------------|-------|
----------------------------------------------------|-------|
--0--0--0-----0--0-----0--0-----0--0-----0--0-------|-------|


----------------------------------------------------|
----------------------------------------------------|
----------------------------------------------------|
--0--0--0-----0--0-----0--0-----0--0-----0--0-------|


----------------------------------------------------|
----------------------------------------------------|
----------------------------------------------------|
--0--0--0-----0--0-----0--0-----0--0-----0--0-------|


----------------------------------------------------|
----------------------------------------------------|
----------------------------------------------------|
--0--0--0-----0--0-----0--0-----0--0-----0--0-------|


--------------------------------------------------------------------------------|
--------------------------------------------------------------------------------|
--------------------------------------------------------------------------------|
--14s---------------------------------0--0--0-----0-----------------0-----------|


--------------------|----------------------------------------------------|
--------------------|----------------------------------------------------|
--------------------|----------------------------------------------------|
------0-------------|--0--0--0-----0--0-----0--0-----0--0-----0--0-------|

                                        =  =
----------------------------------------------------|
----------------------------------------------------|
----------------------------------------------------|
--0--0--0-----0--0-----0--0-----0--0-----0--0-------|


----------------------------------------------------|
----------------------------------------------------|
----------------------------------------------------|
--0--0--0-----0--0-----0--0-----0--0-----0--0-------|


----------------------------------------------------|
----------------------------------------------------|
----------------------------------------------------|
--0-------------------------------------------------|

   =  =
----------------------------------------------------|----------|
----------------------------------------------------|----------|
----------------------------------------------------|--3--6----|
--0--0--0--13~---0--------0--0--0--13~---0----------|----------|


----------------------------------------------------|----------|
----------------------------------------------------|----------|
----------------------------------------------------|----------|
--0--0--0--13~---0--------0--0--0--13~---0----------|--8--7----|


----------------------------------------------------|----------|
----------------------------------------------------|----------|
----------------------------------------------------|--3--6----|
--0--0--0--13~---0--------0--0--0--13~---0----------|----------|


----------------------------------------------------|----------|-------|-------|
----------------------------------------------------|----------|-------|-------|
----------------------------------------------------|----------|-------|-------|
--0--0--0--13~---0--------0--0--0--13~---0----------|--8--7----|--0L---|--0L---|


-------|----------|-------|-------|-------|----------|-------|-------|-------|
-------|----------|-------|-------|-------|----------|-------|-------|-------|
-------|----------|-------|-------|-------|----------|-------|-------|-------|
--0L---|--0--0L---|--0L---|--0L---|--0L---|--0--0----|--0L---|--0L---|--0L---|


-------|-------|-------|-------|----------|
-------|-------|-------|-------|----------|
-------|-------|-------|-------|----------|
--0L---|--0L---|--0L---|--0L---|--0-------|


----------------------------------------------------|
----------------------------------------------------|
----------------------------------------------------|
--0--4--3--0--2--0--2--3--0--4--3--0--2--0--2--3----|


----------------------------------------------------|
----------------------------------------------------|
----------------------------------------------------|
--0--4--3--0--2--0--2--3--0--4--3--0--2--0--2--3----|


----------------------------------------------------|
----------------------------------------------------|
----------------------------------------------------|
--0--4--3--0--2--0--2--3--0--4--3--0--2--0--2--3----|


----------------------------------------------------|
----------------------------------------------------|
----------------------------------------------------|
--0--4--3--0--2--0--2--3--0--4--3--0--2--0--2--3----|


----------------------------------------------------|
----------------------------------------------------|
----------------------------------------------------|
--0--4--3--0--2--0--2--3--0--4--3--0--2--0--2--3----|


----------------------------------------------------|
----------------------------------------------------|
----------------------------------------------------|
--0--4--3--0--2--0--2--3--0--4--3--0--2--0--2--3----|


----------------------------------------------------|
----------------------------------------------------|
----------------------------------------------------|
--0--4--3--0--2--0--2--3--0--4--3--0--2--0--2--3----|


----------------------------------------------------|
----------------------------------------------------|
----------------------------------------------------|
--0--4--3--0--2--0--2--3--0--4--3--0--2--0--2--3----|


----------------------------------------------------|
----------------------------------------------------|
----------------------------------------------------|
--0--------4--------0-----------2-----3-----2-------|


----------------------------------------------------|
----------------------------------------------------|
----------------------------------------------------|
--0--------4--------0-----------2-----3-----2-------|


----------------------------------------------------|
----------------------------------------------------|
----------------------------------------------------|
--0--------4--------0-----------2-----3-----2-------|


----------------------------------------------------|-------|-------||
----------------------------------------------------|-------|-------||
----------------------------------------------------|-------|-------||
--0--0--0--0--------0--0--0--0----------------------|-------|-------||

That's it! Please rate and comment!
comments
We did not receive enough feedback on this tab! Please rate:
print report bad tab
1 2 3 4 5
I want to post or [tab]
guest
You may want to rate the tab now too:
select rating
Please do not post tabs as comments. Select "correction" instead!