Oops, an error
Loading. Please wait.

Crystals bass

1,616 views 6 this week
2 commentsread comments
1 2 3 4 5
3 more votes to show rating
add to favorites
×
Save as Personal and add changes to this tab that will be seen only by you. Learn more ›
×
You can save this tab as Personal to edit and correct it or add notes. All changes will be seen only by you. Learn more »
launch autoscroll
font size
0
reset
guitar tuner
edit
Autoscroll
slow
fast
+/-
esc
set tempo
stop
Author
Difficulty
-------------------------------------------------------------------------------
                             Crystals - Of Monsters And Men
-------------------------------------------------------------------------------
Tabbed by: Gabriel

Tuning: Standard


VERSE 2x
G|--------------------------------------------------------------------------------|
D|--------------------------------------------------------------------------------|
A|---3-3-3-3-3-3-3-3-3-3-3-3------------------------------------------------------|
E|------------------------------1-1-1-1-1-1-1-1-1-1-1-1-1-1-1-1-1-1-1-1-1--0-0-0--|


PRE-CHORUS 2x
G|-------------------------------------------------------------------------------|
D|-------------------------------------------------------------------------------|
A|-------------------------------------------------------------------------------|
E|---5-5-5-5-5-5-5-5-5-5--3-3-3-3-3-3-3-3-3-3--1-1-1-1-1-1-1-1-1-1-1-1-1-1-1-1---|


CHORUS 
G|----------------------------------------------------------------------|
D|--------------------------------5-------------------------------------|
A|---3---2--0----------3----3--5-----3------2--0----------3-------------|
E|--------------3---1------------------------------3---1----------------|


VERSE

PRE-CHORUS

CHORUS

BRAKE
G|------------------------------------------------------------------|
D|------------------------------------------------------------------|
A|------------------------------------------------------------------|
E|---5-5-5-----3-3-3-----1-1-1--------------------------------------|


CHORUS 
G|----------------------------------------------------------------------|
D|--------------------------------5-------------------------------------|
A|---3---2--0----------3----3--5-----3------2--0----------3-------------|
E|--------------3---1------------------------------3---1----------------|





===============================================================================
Suggest correction
Creating personal tab
Creating personal tab
You can edit any tab online and save it as your Personal.

You can edit, replace or remove any tab part or add personal notes – all changes will be seen only by you.

Personal tabs can be accessed anytime from any device, even offline.
Learn more »
Give kudos to tab author, rate the tab!
1 2 3 4 5
comments
print report bad tab
2 comments total.
0 reply
cowlamblam 10 Oct 05, 2016 11:59 PM

this is sexin

0 reply
cowlamblam 10 Oct 06, 2016 12:00 AM

damn right it is

guest
You may want to rate the tab now too:
select rating
Wanna post a correction for this tab? Suggest correction