Oops, an error
Loading. Please wait.
We have Chord Pro version of Dirty Paws.
It's the closest thing you can get to the original song and it has interactive parts. Check out the tab »
×
10,816 views 99 this week
1 commentread comment
1 2 3 4 5
x 18
add to favorites
×
Save as Personal and add changes to this tab that will be seen only by you. Learn more ›
×
You can save this tab as Personal to edit and correct it or add notes. All changes will be seen only by you. Learn more »
launch autoscroll
font size
0
reset
how to read this tab
guitar tuner
edit
Autoscroll
slow
fast
+/-
esc
set tempo
stop
Author
Difficulty
intermediate
-------------------------------------------------------------------------------
                             DIRTY PAWS - Of Monsters And Men
-------------------------------------------------------------------------------
Tabbed by: TukkerxD
Tuning:    standard
capo:      3' fret

h:         hammer-on

[INTRO] 2x
e|------------------------------------------------------------------------------------------------|
B|----------------------------------------------------------------------------------1-----------1-|
G|----------2-----------0-----------0-----------0-----------0-----------0----0h2----------2-------|
D|----2-----------2----------0h2----------2-----------2-----------2--------3-----3-----3-----3----|
A|-0-----0-----0-----0-----3-----3-----3-----3-----3-----3-----3-----3----------------------------|
E|------------------------------------------------------------------------------------------------|


[Verse] 4x
e|------------------------------------------------------------------------------------------------|
B|----------------------------------------------------------------------------------1-----------1-|
G|----------2-----------0-----------0-----------0-----------0-----------0----0h2----------2-------|
D|----2-----------2----------0h2----------2-----------2-----------2--------3-----3-----3-----3----|
A|-0-----0-----0-----0-----3-----3-----3-----3-----3-----3-----3-----3----------------------------|
E|------------------------------------------------------------------------------------------------|

Then there's this part without lyrics just fast downstrums.
chords.
Am x02210
C  x32010
F7 xx3210

Am /  C //  F7 /  Am /  C //  F7 /

Then go back to the verse 4x

At last there is this part were they sing "la-la-la" (if you know the song you will understand)
It's just one strum per chord.
chords.
Am  x02210
C   x32010
F7  xx3210
Am4 x20210
G   320002

Am - Am4 - C   - - - - - -
C  - F7  - Am  - - - G - -
Am - Am4 - C   - - - - - -
C  - F7  - Am  - - - G - -

Then back to the downstrums part.



************************************

| h  Hammer-on

************************************
Suggest correction
Creating personal tab
Creating personal tab
You can edit any tab online and save it as your Personal.

You can edit, replace or remove any tab part or add personal notes – all changes will be seen only by you.

Personal tabs can be accessed anytime from any device, even offline.
Learn more »
comments
print report bad tab
1 comment total.
+1 reply
epayne32 10 Dec 12, 2016 01:35 PM, edited at 06:35 pm

Very good. Thank you

guest
You may want to rate the tab now too:
select rating
Wanna post a correction for this tab? Suggest correction