Oops, an error
Loading. Please wait.

Human chords

version 3
version 3

Whole song

676 views 3 this week
no commentswrite comment
1 2 3 4 5
x 8
add to favorites
×
Save as Personal and add changes to this tab that will be seen only by you. Learn more ›
×
You can save this tab as Personal to edit and correct it or add notes. All changes will be seen only by you. Learn more »
launch autoscroll
font size
0
reset
transpose
0
reset
display chords
guitar tuner
edit
Autoscroll
slow
fast
+/-
esc
set tempo
stop
Author
Strumming
There is no strumming pattern for this song yet. and get +5 IQ
Of Monsters and Men - Human

Intro
 Em               |                |D               |                |
------------------|----------------|----------------|----------------|
-----8-----8------|----8-----8-----|----7-----7-----|----7-----7-----|
---0-----0------0-|--0-----0-----0-|--0-----0-----0-|--0-----0-----0-|
------------------|----------------|----------------|----------------|
-7-----7-----7----|7-----7-----7---|5-----5-----5---|5-----5-----5---|
------------------|----------------|----------------|----------------|   
                 
 C                |                |D               |                ||x2
------------------|----------------|----------------|----------------|
------5-----5-----|----5-----5-----|----7-----7-----|----7-----7-----|
----0-----0-----0-|--0-----0-----0-|--0-----0-----0-|--0-----0-----0-|
------------------|----------------|----------------|----------------|
--3-----3-----3---|3-----3-----3---|5-----5-----5---|5-----5-----5---|
------------------|----------------|----------------|----------------|               
                        
Guitar II (throughout intro/verses)
---------------------|----------------------|
-10-10-----10-10-----|10-10-----10-10-12-12-|
-------9-9-------9-9-|------9-9-------------|
---------------------|----------------------|
---------------------|----------------------|
---------------------|----------------------|

Verse 1
          Em    D                  C      D
When the words weigh heavy on the heart
      Em       D                C      D
I am lost and led only by the stars
 
                C                             D
Cage me like an animal a crown with gems and gold
               C                         D
Eat me like a cannibal chase the neon throne

Chorus
        Em              D              C
Breathe in, breathe out, let the human in
        Em             D           C
Breathe in, breathe out and let it in
         Em                    D                C
Plants awoke and they slowly grow beneath the skin
           Em              D              C
So breathe in, breathe out, let the human in


Verse 2
    Em      D                     C      D
The air is silk, shadows form a grin
      Em       D                       C      D
If I lose control I feed the beast within
       
                C                             D
Cage me like an animal a crown with gems and gold
               C                         D
Eat me like a cannibal chase the neon throne

Chorus
        Em              D              C
Breathe in, breathe out, let the human in
        Em             D           C
Breathe in, breathe out and let it in
         Em                    D                C
Plants awoke and they slowly grow beneath the skin
           Em              D              C
So breathe in, breathe out, let the human in


Solo  
 Em                      |                        |
-------------------------|------------------------|
-12-12-12-12-12-12-12-12-|12-12-12-12-15-15-15-15-|
-------------------------|------------------------|
-------------------------|------------------------|
-------------------------|------------------------|
-------------------------|------------------------|

 D                       |                        |
-------------------------|------------------------|
-------------------------|---------------------12-|
-14-14-14-14-14-14-14-12-|14-14-14-12-14-14-14----|
-------------------------|------------------------|
-------------------------|------------------------|
-------------------------|------------------------|

 C                       |                        |
-------------------------|------------------------|
-------------------------|---------------------12-|
-14-12----------------12-|14-14-14-12-14-14-14----|
-------14-14-14-14-14----|------------------------|
-------------------------|------------------------|
-------------------------|------------------------|
                 
 D                       |                        ||x2        
-------------------------|------------------------|
-------------------------|------------------------|                 
-14-14-14-14-14-14-14-14-|14-14-14-14-14-14-14-14-|
-------------------------|------------------------|
-------------------------|------------------------|
-------------------------|------------------------|


Outro
                C                             D
Cage me like an animal a crown with gems and gold
               C                         D
Eat me like a cannibal chase the neon throne
                      Em
If I could only let go



            
            
Suggest correction
Creating personal tab
Creating personal tab
You can edit any tab online and save it as your Personal.

You can edit, replace or remove any tab part or add personal notes – all changes will be seen only by you.

Personal tabs can be accessed anytime from any device, even offline.
Learn more »
comments
print report bad tab
guest
You may want to rate the tab now too:
select rating
Wanna post a correction for this tab? Suggest correction