Oops, an error
Loading. Please wait.

Hunger tab

1,153 views 1 this week
no commentswrite comment
1 2 3 4 5
2 more votes to show rating
add to favorites
×
Save as Personal and add changes to this tab that will be seen only by you. Learn more ›
×
You can save this tab as Personal to edit and correct it or add notes. All changes will be seen only by you. Learn more »
launch autoscroll
font size
0
reset
how to read this tab
guitar tuner
edit
Autoscroll
slow
fast
+/-
esc
set tempo
stop
-------------------------------------------------------------------------------
                            Hunger - Of Monsters and Men
-------------------------------------------------------------------------------
Tabbed by: Kendal R
E-mail: kruzicki@rundlecollege.ca

Tuning: standard

Capo 2 

(verse 1 - single strum)

Cmaj7         G        D6/F#
You are right, I'll move on

                         Cmaj7
But my lungs feel so small

               G          D6/F#
I couldn't breathe if I tried

Cmaj7        G            D6/F#
I lay my head on the floor

                         Cmaj7
My beating heart wanted more

                   G              D6/F#
But I'll keep it in and keep you out

Cmaj7     G             D6/F#
I'm drowning, I'm drowning

Cmaj7     G             D6/F#
I'm drowning, I'm drowning


e|-------------------------------------------------------------------------------------------------|
B|------0-------------------------------------------0----------------------------------------------|
G|--0----------0---0----0------0h2-----2\4------0-----------0---0----0------2--------2p0-------0---|
D|-----------------0--0-----------------------------------------0--0-------------------------------|
A|--3-------3-----------------------------------3--------3-------------------------------------3---|
E|----------------------------2---------------------------------------------2----------------------|


(verse 2)

Cmaj7           G            D6/F#
But for the longest time I knew

                               Cmaj7
There was nothing left for us to do

         G        
But I tried, oh, I try

e|--------------------|
B|--------------------|
G|---2\4----0---------|
D|--------------------|
A|----------3---------|
E|--------------------|

             G           D6/F#
And in this quiet company

                               Cmaj7
There is nothing staring back at me

        G              D6/F#
I'm in need of the sound


(chorus)

C                Em            G                C
Hungry for the kill, but this hunger, it isn't you

C           Em                   G                  C
Voices disappear when you are speaking, in somber tunes

C              Em                     G                      C
I will be the wolf and when you're starving, you'll need it too

C               Em               G             C
Hungry for the kill, but this hunger, it isn't you

        Em
It isn't you, it isn't


e|-------------------------------------------------------------------------------------------------|
B|------0-------------------------------------------0----------------------------------------------|
G|--0----------0---0----0------0h2-----2\4------0-----------0---0----0------2--------2p0-------0---|
D|-----------------0--0-----------------------------------------0--0-------------------------------|
A|--3-------3-----------------------------------3--------3-------------------------------------3---|
E|----------------------------2---------------------------------------------2----------------------|


(verse 3)

Cmaj7        G            D6/F#
I grew tall to fill the void

                              Cmaj7
Let me go cause you are just a shade

          G              D6/F#
Of what I am, not what I'll be


e|------------------------|
B|----0-----0------0------|
G|-------0------0---------|   
D|------------------------|
A|------------------------|
E|------------------------|


Cmaj7         G        D6/F#
But in this quiet company

                                Cmaj7
I forget sometimes just how to breathe

          G               D6/F#
Fill my lungs with the sound


(chorus)

C                Em            G                C
Hungry for the kill, but this hunger, it isn't you

C           Em                   G                  C
Voices disappear when you are speaking, in somber tunes

C              Em                     G                      C
I will be the wolf and when you're starving, you'll need it too

C               Em               G             C
Hungry for the kill, but this hunger, it isn't you

        Em
It isn't you, it isn't


(bridge)

Em - G - Cmaj7 (x4)


Em         G           Cmaj7
I'm drowning, I'm drowning

Em         G           Cmaj7
I'm drowning, I'm drowning

Em         G            Cmaj7
I'm drowning, I'm drowning

(slower)

Cmaj7      G            D6/F#
I'm drowning, I'm drowning

Cmaj7      G            D6/F#
I'm drowning, I'm drowning





************************************

| /   slide up
| \   slide down
| h   hammer-on
| p   pull-off
| ~   vibrato
| +   harmonic
| x   Mute note
| b   Bend
| pb  Pre-bend
| br  Bend release
| pbr Pre-bend release
| brb Bend release bend

************************************

            
            
Suggest correction
Creating personal tab
Creating personal tab
You can edit any tab online and save it as your Personal.

You can edit, replace or remove any tab part or add personal notes – all changes will be seen only by you.

Personal tabs can be accessed anytime from any device, even offline.
Learn more »
Give kudos to tab author, rate the tab!
1 2 3 4 5
comments
print report bad tab
guest
You may want to rate the tab now too:
select rating
Wanna post a correction for this tab? Suggest correction