Oops, an error
Loading. Please wait.

Hunger chords

version 2
version 2

Whole song

21,644 views 66 this week
5 commentsread comments
1 2 3 4 5
x 61
add to favorites
×
Save as Personal and add changes to this tab that will be seen only by you. Learn more ›
×
You can save this tab as Personal to edit and correct it or add notes. All changes will be seen only by you. Learn more »
launch autoscroll
font size
0
reset
transpose
0
reset
simplify chords
display chords
guitar tuner
edit
Autoscroll
slow
fast
+/-
esc
set tempo
stop
Strumming
There is no strumming pattern for this song yet. and get +5 IQ
Artist: Of Monsters and Men
Song: Hunger
Album: Beneath The Skin

Tabbed by: Karla Dulay
Email: karladulay@gmail.com

I tabbed this from a YouTube video of them performing it live and
I would link it to you, but the video was removed so I will update with a link later


CAPO 2

CHORDS:
e|----x----|----x----|----x----|----0----|----0----|
B|----0----|----0----|----0----|----1----|----0----|
G|----0----|----0----|----2----|----0----|----0----|
D|----2----|----0----|----0----|----2----|----2----|
A|----3----|----2----|----0----|----3----|----2----|
E|----x----|----3----|----2----|----x----|----0----|
    Cmaj7       G       D6/F#       C        Em


[Verse]

Cmaj7      G           D6/F#
You were right, I'll move on
                     Cmaj7
But my lungs feel so small
              G      D6/F#
I couldn't breathe if I tried
Cmaj7     G          D6/F#
I lay my head on the floor
                         Cmaj7
My beating heart wanted more
                  G             D6/F#
But I'll keep it in and keep you out

Cmaj7  G            D6/F#
I'm drowning, I'm drowning
Cmaj7  G            D6/F#
I'm drowning, I'm drowning


[INTERLUDE:] Cmaj7 - G - D6/F# (2x)


GUITAR 2 (CAPO 2)
e|-----------------------------------------------------------------------------|
B|------0----------------------------------0-----------------------------------|
G|---0-------0--0-------0-----2----2/4--0-------0--0-------0----2----2p0--0----|
D|--------------0-----0---0------------------------0-----0---0-----------------|
A|---3-----3----------------------------3-----3---------------------------3----|
E|--------------3-------------2--------------------3------------2--------------|
                ^                                  ^
           For those Gs I'm pretty sure in the live performances I hear 
           the open B string played (3xx00x) but I don't hear it in the studio
           version so you can just play what you like best
           

[Verse 2]

Cmaj7          G           D6/F#
And for the longest time I knew 
                               Cmaj7
There was nothing left for us to do
        G         D6/F#
But I tried, oh I try
 Cmaj7         G   D6/F#
And in this quiet company
                                Cmaj7
There is nothing staring back at me
        G        D6/F#
I'm in need of a sound


[Chorus]

  C             Em
Hungry for the kill
           G              C
But this hunger it isn't you
  C        Em                    G                 C
Voices disappear when you are speaking in sombre tunes
  C            Em                    G                      C
I will be the wolf and when you're starving you'll need it too
  C             Em
Hungry for the kill
           G              C
But this hunger it isn't you

It isn't you, it isn't


[INTERLUDE:] Cmaj7 - G - D6/F# (2x)


GUITAR 2 (CAPO 2) Same as first interlude
e|-----------------------------------------------------------------------------|
B|------0----------------------------------0-----------------------------------|
G|---0-------0--0-------0-----2----2/4--0-------0--0-------0----2----2p0--0----|
D|--------------0-----0---0------------------------0-----0---0-----------------|
A|---3-----3----------------------------3-----3---------------------------3----|
E|--------------3-------------2--------------------3------------2--------------|


[Verse 3]

Cmaj7          G        D6/F#
I grew tall to fill the void
                                 Cmaj7           G
Let me go because you are just a shade of what I am
            D6/F#
Not what I'll be
Cmaj7         G    D6/F#
But in this quiet company 
                                 Cmaj7
I forgot sometimes just how to breathe
          G          D6/F#
Fill my lungs with a sound


[Chorus]

  C             Em
Hungry for the kill
           G              C
But this hunger it isn't you
  C        Em                    G                 C
Voices disappear when you are speaking in sombre tunes
  C            Em                    G                      C
I will be the wolf and when you're starving you'll need it too
  C             Em
Hungry for the kill
           G              C
But this hunger it isn't you

It isn't you, it isn't


[BRIDGE/OUTRO]

 Em - G - Cmaj7 (4x)

 Em    G             Cmaj7
I'm drowning, I'm drowning
 Em    G             Cmaj7
I'm drowning, I'm drowning
 Em    G             Cmaj7
I'm drowning, I'm drowning
Cmaj7  G            D6/F#
I'm drowning, I'm drowning
Cmaj7  G            D6/F#
I'm drowning, I'm drowning



************************************

| x  Dead note
| p  Pull-off
| /  Slide up

************************************

            
            
Suggest correction
Creating personal tab
Creating personal tab
You can edit any tab online and save it as your Personal.

You can edit, replace or remove any tab part or add personal notes – all changes will be seen only by you.

Personal tabs can be accessed anytime from any device, even offline.
Learn more »
comments
print report bad tab
5 comments total. Showing first comments.
0 reply
TheGroovyGuitar 10 Jun 12, 2015 08:15 AM

Here is a good quality video breakdown for this song! https://youtu.be/astiR3nPquE

0 reply
Rob325 10 Aug 22, 2015 02:30 AM

WHY?! WHY when I play it along with the song it sounds wrong?

0 reply
loganiskewl 10 Jun 25, 2017 04:12 AM

the chords don't match up quite right, maybe try to line them up better?

guest
You may want to rate the tab now too:
select rating
Wanna post a correction for this tab? Suggest correction