Oops, an error
Loading. Please wait.

King And Lionheart Tab

version 1
version 1

Solo

Whole song

8,839 views 36 this week
3 commentsread comments
1 2 3 4 5
accurate
x 16
add to favorites
launch autoscroll
font size
0
reset
how to read this tab
guitar tuner
Tab Pro tools
  • play this tab
  • loop segment
  • change instrument
  • show fretboard
  • metronome
×
Best way to learn
"King And Lionheart"
Autoscroll
slow
fast
+/-
esc
set tempo
stop
Contributor
Difficulty
novice
Capo on third fret

Howling ghosts they reappear in
Mountains that are stacked with fear but
You're a king and I'm a lionheart

e--5---7-5-3-0-3--------5---7-5-3-0-3--------5---7-5-3-0-3--------------------|
B----------------3--------------------3--------------------3-0-2--------------|
G-----------------------------------------------------------------------------|
D------------------(0)------------------(0)-----------------------------------|
A--0---0-0-0-0-0-0------0---0-0-0-0-0-0------0---0-0-0-0-0-0-0-0--------------|
E-----------------------------------------------------------------------------|
comments
print report bad tab
3 comments total.
0 reply
guitar0428 wrote on July 8 2013, 05:15 pm

The last three notes I think are wrong....this sounds a bit better to me:

e-----------------
b-----3-3-1-5-----

and these notes are still played with the open a plucking. Wht do you think?

+2 reply
hardyharhar33 wrote on July 19 2013, 05:34 pm

The last three notes are
e---------0------
b-----3-1--------

Great job though!

0 reply
gustavoaraujo9 wrote on May 10 2014, 07:50 pm

e|-5--7-5-3-0-3---|-5--7-5-3-0-3-----|-5--7-5-3-0-3-----0-----------|
B|--------------3-|--------------3-1-|--------------3-1-------------|
G|----------------|------------------|------------------------------|
D|-3--3-3-3-------|-3--3-3-3---------|-3--3-3-3---------------------|
A|----------3-3-3-|----------3-3-3---|----------3-3-3---0-----------|
E|----------------|----------------3-|----------------3-------------|

these are the bass notes matched to the chords.

I want to post or [tab]
guest
You may want to rate the tab now too:
select rating
Please do not post tabs as comments. Select "correction" instead!