Oops, an error
Loading. Please wait.
We have an official Little Talks tab made by UG professional guitarists. Check out the tab »
×
499 views 3 this week
no commentswrite comment
1 2 3 4 5
x 4
add to favorites
×
Save as Personal and add changes to this tab that will be seen only by you. Learn more ›
×
You can save this tab as Personal to edit and correct it or add notes. All changes will be seen only by you. Learn more »
launch autoscroll
font size
0
reset
how to read this tab
guitar tuner
edit
Autoscroll
slow
fast
+/-
esc
set tempo
stop
*-------------------------------------PLEASE NOTE-------------------------------------*
*-This file is the author's own work and represents their interpretation of the song.-*
*-------You may only use this file for private study, scholarship, or research.-------*
*-------------------------------------------------------------------------------------*

Originally released at December 20 2011 as the lead single from their debut album, 
"My Head is an Animal". Critically acclaimed all over the world, reaching :

#1 in Iceland(Tónlist), Ireland (IRMA), México (Billboard), US Alternative (Billboard)
#2 in Canada Alternative Rock, Czech Radio Top 100
#3 in Belgium Ultratop 50, Italy (FIMI), US Hot Rock (Billboard), US Rock Billboard)
Top 5 in Germany, Poland, New Zealand
Top 10 in Austria, Australia, Slovakia & Luxembourg

Driven by a reverb-y call-and-response verse, a galloping chorus and trumpet-focused riffs,
this song's the band's smashing hit.

===========================================================================================

Tabbed by Pelusteriano
Contact at my UG profile
Lyrics  by Nanna Bryndís Hilmarsdóttir & Ragnar Þórhallsson
Music by Of Monsters and men
Key of Bb minor

===========================================================================

Note: This version is based on the next live performance
      Live at KEXP: https://youtu.be/GZ-kXZsUa_w

      I will keep including the trumpet solos for other live peformances as
      I figure them out. If you have any suggestion, let me know in the 
      comments.

===========================================================================
Chords (low to high, standard tuning, relative to capo at 1st fret)
Am X02210  F 133211  C X32010  G 320033


TRUMPET SOLO (KEXP '11 performance)

Begins at last bar of first chorus
Trumpet arr. for guitar (chords relative to capo, tab not relative to capo)

  C   G            Am         F        C            G
|---------------||-6h8h9-(9)---------|-11----9-8-----------------|
|---------4/6-9-||----------------11-|----11-----11-9------------|
|-----6-8-------||-------------------|----------------11-10-8----|
|---------------||-------------------|------------------------11-|
|---------------||-------------------|---------------------------|
|---------------||-------------------|---------------------------|
           /: Slide up   (X): let ring
                    h: Hammer-on

  Am              F                 C               G
|---------------------------------|--------------------------|
|------9-------9-------9-------9--|------9-------9-------9---|
|-8h10----8h10----8h10----8h10----|-8h10----8h10----8h10-----|
|---------------------------------|--------------------------|
|---------------------------------|--------------------------|
|---------------------------------|--------------------------|

  Am            F                C                  G
|--9------------9-9------------|-11-11-13--11-9-11--9-8-9--8-6-8--|
|-----9-11--11------11--9--11--|----------------------------------|
|------------------------------|----------------------------------|
|------------------------------|----------------------------------|
|------------------------------|----------------------------------|
|------------------------------|----------------------------------|

  Am             F              C          G            Am . . . Enter fade to interlude
|-----------------------------|-----------------------|--------|
|-6------6---------------5h6--|-----------------------|--------|
|----8-6---8-6-8-6----8-------|-8--6p5----------------|--------|
|-----------------------------|--------6---8--6h8-6---|-(6)----|
|-----------------------------|-----------------------|--------|
|-----------------------------|-----------------------|--------|
                                    p: Pull-off



***************************************************************************************
                    Did you like this tab? Leave a comment or rate!
            Noticed anything wrong? Let me know to fix it. Keep on rocking!
***************************************************************************************

            
            
Suggest correction
Creating personal tab
Creating personal tab
You can edit any tab online and save it as your Personal.

You can edit, replace or remove any tab part or add personal notes – all changes will be seen only by you.

Personal tabs can be accessed anytime from any device, even offline.
Learn more »
comments
print report bad tab
guest
You may want to rate the tab now too:
select rating
Wanna post a correction for this tab? Suggest correction