Oops, an error
Loading. Please wait.

Little Talks Bass Tab

version 3
version 3

Whole song

Interactive

7,099 views 33 this week
no commentswrite comment
1 2 3 4 5
excellent!
x 8
add to favorites
launch autoscroll
font size
0
reset
guitar tuner
Tab Pro tools
  • play this tab
  • loop segment
  • change instrument
  • show fretboard
  • metronome
×
Best way to learn
"Little Talks"
Autoscroll
slow
fast
+/-
esc
set tempo
stop
Contributor
Difficulty
novice
==============================================================
||         First tab so please forgive any errors.          ||   
|| This is how I play it, I'm not sure if it's 100% correct.||
||                                                   - MSCA ||
==============================================================  

                  Of monsters and men - little talks

G |-----------------------------------------------------------------|
D |---------------------44-4------------44-4------------44-4--------|
A |-11-1----44-4----11-1----44-4----11-1----44-4----11-1----44-4----|
E |-----22-2----44-4------------4444------------44-4------------4444|

 
G |------------|      |
D |----4-------|      | I don't like walking around this old and empty  
A |1-------4---|      | house.
E |------------|      |


(break)

                      | So Hold my hand I'll walk with you my dear
                      | The stairs creak as I sleep, it's keeping me awake
                      | It's the house telling you to close your eyes
                      |
G |------------|      |
D |----4-------| x 2  | Some days I can't even dress myself
A |1-------4---|      | It's killing me to see you this way
E |------------|      |


G |-------------------------------| |
D |----4---------------4444-------| | Cause though the truth may vary
A |1-------4-------1111----44444--| | This ship will carry Our bodies safe 
E |------------4------------------| | to shore



G |------------------------------------------------------------------|
D |---------------------44-4-------------44-4------------44-4--------|
A |-11-1----44-4----11-1----44-4-----11-1----44-4----11-1----44-4----|
E |-----22-2----44-4-------------4444------------44-4------------4444|



G |------------|    | There's an old voice in my head that's holding me back
D |----4-------| x4 | Well tell her that I miss our little talks
A |1-------4---|    | Soon it will all be over, and buried with our past
E |------------|    | We used to play outside when we were young 
                    | And full of life and full of love



G |------------------------------| | Some days I don't know if I am wrong 
D |-----4-------------4-4--------| | or right. Your mind is playing tricks 
A |-1-----4-4-4-4-1-1----4-4-4-4-| | on you my dear
E |------------------------------| | 


G |-----------------------------| | cause though the truth may vary This 
D |----4-4------------4444------| | ship will carry Our
A |-1-1----4-4----1111----44444-| | bodies safe to shore
E |------------4-4--------------| |


(Hey!)



G |----------------------------------| | Don't listen to a word I say
D |---------------------44-4---------| | (Hey!) The screams all sound the same 
A |-11-1----44-4----11-1----44-4-----| | (Hey!)
E |-----22-2----44-4------------4444-| | 



G |----------------------------------| |
D |-----44-4------------44-4---------| | Though the truth may vary This 
A |-11-1----44-4----11-1----44-4-----| | ship will carry Our bodies safe to shore
E |-------------44-4------------4444-| |



G |----------------------------------| |
D |-----44-4------------44-4---------| | 
A |-11-1----44-4----11-1----44-4-----| | 
E |-------------44-4------------4444-| |



G |-----------------------------------| |
D |-----44-4------------44-4----------| |
A |-11-1----44-4----11-1----4444-----1| |
E |-------------44-4------------4444--| |


(break) 

                | | You're gone, gone, gone away 
                | | I watched you disappear
                | | All that's left is a ghost of you
                | | Now we're torn, torn, torn apart
                | | There's nothing we can do
                | | Just let me go, we'll meet again soon


G |-------------------------------| |
D |-----4-4-------------4444------| | Now wait, wait, wait for me Please hang around
A |-1-1-----4-4-4-4-1111----44444-| | I'll see you when I fall asleep
E |-------------------------------| |



(Hey!)




G |----------------------------------| | Don't listen to a word I say 
D |---------------------44-4---------| | (Hey!) 
A |-11-1----44-4----11-1----44-4-----| | The screams all sound the same 
E |-----22-2----44-4------------4444-| | (Hey!)



G |----------------------------------| |
D |-----44-4------------44-4---------| | Though the truth may vary This 
A |-11-1----44-4----11-1----44-4-----| | ship will carry Our 
E |-------------44-4------------4444-| | bodies safe to shore



G |----------------------------------| | Don't listen to a word I say
D |---------------------44-4---------| | (Hey!) 
A |-11-1----44-4----11-1----44-4-----| | The screams all sound the same  
E |-----22-2----44-4------------4444-| | (Hey!)



G |-----------------------------------| |
D |-----44-4------------44-4----------| | Though the truth may vary This 
A |-11-1----44-4----11-1----4444-----1| | ship will carry Our 
E |-------------44-4------------4444--| | bodies safe to shore 


  | | Though the truth may vary This 
  | | ship will carry Our bodies safe to shore
  | | Though the truth may vary This 
  | | ship will carry Our bodies safe to shore
comments
print report bad tab
I want to post or [tab]
guest
You may want to rate the tab now too:
select rating
Please do not post tabs as comments. Select "correction" instead!