Oops, an error
Loading. Please wait.

Love Love Love tab

11,346 views 33 this week
3 commentsread comments
1 2 3 4 5
x 12
add to favorites
×
Save as Personal and add changes to this tab that will be seen only by you. Learn more ›
×
You can save this tab as Personal to edit and correct it or add notes. All changes will be seen only by you. Learn more »
launch autoscroll
font size
0
reset
how to read this tab
guitar tuner
edit
Autoscroll
slow
fast
+/-
esc
set tempo
stop
Hear the song for the strumming pattern!
(http://www.youtube.com/watch?v=3IhI87arSAE)
Tuning: EADGBE (standard)
Capo 7

[Chords]
Am    = x|0|2|2|1|0
Am/B  = x|2|0|2|1|0
C     = x|3|2|0|1|0
F*    = x|x|3|2|1|(0)
G*    = 3|2|0|0|1|(0)
Em*   = 0|2|2|0|1|(0)
"*" - probably not the correct chord name but who cares...?

[Intro](+Solo)
   Am  Am/B   C       Am   Am/B  C       Am   Am/B  C        Am  Am/B   C
e|-7----5----7-------7-----5----3-------7-----5-----7-------7----5------|
B|-------------------------------------------------------------7---7-5-3|
G|----------------------------------------------------------------------|
D|----------------------------------------------------------------------|
A|----------------------------------------------------------------------|
E|----------------------------------------------------------------------|

[Verse 1]
Am             Am/B       C                         Am
Well, maybe I'm a crook for stealing your heart away
             Am/B       C
And maybe I'm a crook for not caring for it
Am             Am/B   C                   Am      Am/B
Yeah, maybe I'm a bad, bad, bad... bad person
           C
Well, baby I know

[Verse 2]
And these fingertips will never run through your skin
Those bright blue eyes can't only meet mine 
Across the room filled with people that are less important than you

[Chorus]
       F*   G*             C
'Cause you love, love, love
          Em*
When you know I can't love you
 F*   G*            C
You love, love, love
          Em*
When your know I can't love you
 F*  G*              C
You love, love, love
          Em*          F*       G* 
When you know I can't love you 

[Interlude](same as Intro+Solo)

[Verse 3]
So I think it's best we both forget
Before we dwell on it
The way you held me so tight all through the night
Til it was near morning

[Chorus](2x)

[Outro](same as Intro+solo)
     Am  Am/B   C        Am  Am/B   C        
e|-7----5--------------7----5--------------7----5------|
B|----7---7-5-3-----------7---7-5-3-----------7---7-5-3|
G|-----------------------------------------------------|
D|-----------------------------------------------------|
A|-----------------------------------------------------|
E|-----------------------------------------------------|

            
            
Suggest correction
Creating personal tab
Creating personal tab
You can edit any tab online and save it as your Personal.

You can edit, replace or remove any tab part or add personal notes – all changes will be seen only by you.

Personal tabs can be accessed anytime from any device, even offline.
Learn more »
comments
print report bad tab
3 comments total.
0 reply
Avi_Israel 2,819 Jun 03, 2014 04:10 PM

Intro thingy:
e|---------------|-----------|---------------|--12-------10---------|
B|--12-10-10/12--|--12-10-8--|--12-10-10/12--|-----10/12----12-10-8-|
G|---------------|-----------|---------------|----------------------|
D|---------------|-----------|---------------|----------------------|
A|---------------|-----------|---------------|----------------------|
E|---------------|-----------|---------------|----------------------|

End Verse thingy:
e|-----------------|-----------------------|---------------|
B|-----------------|-----------------------|---------------|
G|--7/9--7---------|-----------------------|---------------|
D|----------9-7-5--|---7---5-7---5-7--7/9--|--7--9/7---5---|
A|-----------------|-----------------------|---------------|
E|-----------------|-----------------------|---------------|

guest
You may want to rate the tab now too:
select rating
Wanna post a correction for this tab? Suggest correction