Oops, an error
Loading. Please wait.

Silhouettes Live chords

version 8
version 8

Whole song

46 views 3 this week
no commentswrite comment
1 2 3 4 5
3 more votes to show rating
add to favorites
×
Save as Personal and add changes to this tab that will be seen only by you. Learn more ›
×
You can save this tab as Personal to edit and correct it or add notes. All changes will be seen only by you. Learn more »
launch autoscroll
font size
0
reset
transpose
0
reset
display chords
guitar tuner
edit
Autoscroll
slow
fast
+/-
esc
set tempo
stop
About this tab version
This version uses already established chords for the song and then tweaks them to fit a live version of the song. Whilst the other chords focus on the Studio version of the song, this set of chords focuses on a live version of chords and adds the picking pattern used in the live version of the song, something that has not been done by other tabs to date. Was this info helpful? Yes No
Strumming
There is no strumming pattern for this song yet. and get +5 IQ
These chords are accurate for the live version of silhouettes that they play for World
Cafe (https://www.youtube.com/watch?v=aEW7zqSeLyo).  Raggi's part on guitar is as follow.
  
Note: Upon going to a verse, swap to the verse chords but do not swap straight away from
verse picking to pre-chorus/chorus picking. The Pre-chorus/chorus picking pattern
doesnt start until where marked with an "/" to avoid any confusion.
This is mainly so that
the transition between the two seems natural and not really forced as the song is evolving.

Side-note: This does not include Brynjar's part on the guitar which is why this tab sounds VERY
slightly different to the live version. If you wanted to add a second guitar doing Brynjar's guitar,
my thought would be put a capo on the 7th fret and then pranspose the chords -5 and stick to strumming
and picking the D, G, and B strings (thats my only guess for what he is playing just without a capo).

With all that being said, transposing this song +2 for a piano sounds nice alongside the guitar in this tab.
 
Picking Pattern for the Verses -

Am :
E|---------------------------|
B|--------1--------1---------|
G|-----2--------2--------2---|
D|-----------2--------2------|
A|--0------------------------|
E|---------------------------|

F :
E|---------------------------|
B|--------1--------1---------|
G|-----2--------2--------2---|
D|-----------3--------3------|
A|--3------------------------|
E|---------------------------|

C :
E|---------------------------|
B|--------1--------1---------|
G|-----0--------0--------0---|
D|-----------2--------2------|
A|--3------------------------|
E|---------------------------|

C* :
E|---------------------------|
B|--------1--------1---------|
G|-----0--------0--------0---|
D|-----------2--------0------|
A|--3------------------------|
E|---------------------------|


The Picking Pattern for the Pre-Chourus and Chorus are as follows -
Am :
E|--------0---------0-----------|
B|-----1--------1--------1------|
G|------------------------------|
D|-----------2--------2---------|
A|--0---------------------------|
E|------------------------------|

F :
E|--------0--------0---------|
B|-----1--------1--------1---|
G|---------------------------|
D|-----------3--------3------|
A|--3------------------------|
E|---------------------------|

C :
E|--------0--------0---------|
B|-----1--------1--------1---|
G|---------------------------|
D|-----------2--------2------|
A|--3------------------------|
E|---------------------------|

G :
E|--------3--------3---------|
B|-----0--------0--------0---|
G|-----------0--------0------|
D|---------------------------|
A|---------------------------|
E|--3------------------------|

Dm :
E|--------1--------1---------|
B|-----3--------3--------3---|
G|-----------2--------2------|
D|--0------------------------|
A|---------------------------|
E|---------------------------|

Note: Upon going to a verse, swap to the verse chords but do not swap straight away from
verse picking to pre-chorus/chorus picking. The Pre-chorus/chorus picking pattern
doesnt start until where marked with an "/" to avoid any confusion.

[Verse]
     Am  F        C
It's hard letting go
    Am         F                  C
I'm finally at peace but it feels wrong
Am  F           C
Slow I'm getting up
   Am        F                      C
My hands and feet are weaker than before

[Pre-Chorus]
    F                     Am                  /G
And you are folded on the bed where I rest my head
                      Dm                    F
There's nothing I can see, darkness becomes me

[Chorus]
                     Am                 G
But I'm already there, I'm already there
                  Dm                   Am
Wherever there is you, I will be there too

         Am  C   F
E|-------0---3---0---|
B|1--3---1---1---1---|
G|-------2---0---2---|
D|-------2---2---3---|
A|-------0---3---0---|
E|-------------------|    x2
 
[Verse]
        Am     F            C
There's nothing that I'd take back
         Am                 F            C          C*
But it's hard to say there's nothing I regret
             Am                F
Cause when I sing, you shout I breathe out loud
    C                    C*
You bleed, we crawl like animals
             Am    F           C      C*
But when it's over, I'm still awake

[Pre-Chorus]
F                 Am                /G
A thousand silhouettes dancing on my chest
                 Dm                      F
No matter where I sleep, you are haunting me

[Chorus]
                Am                 G
But I'm already there, I'm already there
                Dm                     F
Wherever there is you, I will be there too
                Am                 G
But I'm already there, I'm already there
                Dm                     F
Wherever there is you, I will be there too

[Bridge]
F Am G Dm  x2

[Chorus]
F                  Am                 G
'Cause I'm already there, I'm already there
                Dm                     F
Wherever there is you, I will be there too
            Am                 G
I'm already there, I'm already there
                Dm                     Am
Wherever there is you, I will be there too

[Outro]

Am C F  x3
Am G F

            
            
Suggest correction
Creating personal tab
Creating personal tab
You can edit any tab online and save it as your Personal.

You can edit, replace or remove any tab part or add personal notes – all changes will be seen only by you.

Personal tabs can be accessed anytime from any device, even offline.
Learn more »
Give kudos to tab author, rate the tab!
1 2 3 4 5
comments
print report bad tab
guest
You may want to rate the tab now too:
select rating
Wanna post a correction for this tab? Suggest correction