Oops, an error
Loading. Please wait.

Slow Life chords

version 2
version 2

Whole song

4,515 views 21 this week
no commentswrite comment
1 2 3 4 5
x 21
add to favorites
×
Save as Personal and add changes to this tab that will be seen only by you. Learn more ›
×
You can save this tab as Personal to edit and correct it or add notes. All changes will be seen only by you. Learn more »
launch autoscroll
font size
0
reset
transpose
0
reset
simplify chords
display chords
guitar tuner
edit
Autoscroll
slow
fast
+/-
esc
set tempo
stop
Strumming
There is no strumming pattern for this song yet. and get +5 IQ
Artist: Of Monsters and Men
Song: Slow Life
Album: Beneath The Skin

Tabbed by: Karla Dulay
Email: karladulay@gmail.com


CAPO 5


VERSE
                Am
What are they talking about
          G
On the weekends
              Dm
Lost in the forest of this heart
               Am
Is a foreign still

                Am
Why are they shaking their heads
                G
We're stuck in slow life
            Dm
Is it the beating of the chest
                        Am
That makes us feel the rest


INTERLUDE: 

Am - G - Dm - Am

Or here is the other guitar part (Also with capo on the 5th)
e|------------0------------------------------------------0----|
B|------------1-------------0----------------------------1----|
G|------------2-------------0----------------------------2----|
D|------0--2--2-------0-----0--------0-0---0---0--2------2----|
A|--0-3-------0--0--3-------2------3-----3---3------3-0--0----|
E|-----------------------3--3----3----------------------------|

                Am
We're slowly sailing away
         G
Behind closed eyes
              Dm
Where not a single ray of light
                          Am
Can puncture through the night


CHORUS
     Fmaj7
You caught me in a tide
              Am   G
And I caught you
   Dm         
Sheltered by the night
        Am               G
Red in tooth and red in claw
    Fmaj7
You saw me in new light
           Am   G
And I saw you
   Dm
Sheltered by the night
        Am               G
Red in tooth and red in claw


VERSE
               Am
Between the daylight
          G
And the deep sea
         Dm
Lies a swarm of silhouettes 
            Am
Floating aimlessy

             Am
But I'm a mountain
         G
I am a killer
            Dm     
You'll get lost and buried deep
                 Am
If you swim with me


CHORUS
     Fmaj7
You caught me in a tide
              Am   G
And I caught you
   Dm         
Sheltered by the night
        Am               G
Red in tooth and red in claw
    Fmaj7
You saw me in new light
           Am   G
And I saw you
   Dm
Sheltered by the night
        Am               G
Red in tooth and red in claw


BRIDGE

Am - G - Dm - Am (1x)

                    G
Whoa oh, whoa oh oh
                    Dm
Whoa oh, whoa oh oh
                    Am
Whoa oh, whoa oh oh

Whoa oh, whoa oh oh

    Am          
So look at you look at me
                 G
All because we need to know
   Fmaj7
So look at me look at you
                    Am
All because we'll never to know
    Am
So look at you look at me
                G
All because we need to know
    Dm 
So look at me look at you
                   Am
All because we'll never to know


OUTRO (Whoa oh, whoa oh oh...)

Chords: Fmaj7 - Am - G - Dm - Am - G (Play through 4x then end on Fmaj7)

Other guitar part 
*THIS PART IS NOT WRITTEN RELATIVE TO CAPO
I thought it would be easier to read it this way:
e|------------------------------------------------------|
B|--15-------15-------15----15-------15-------15--------|
G|-----15-15----15-15----15----15-15----15-15----15-----|
D|------------------------------------------------------|
A|------------------------------------------------------|
E|------------------------------------------------------|

e|------------------------------------------------------|
B|--15-------15-------15----13-------13-------13--------|
G|-----14-14----14-14----14----12-12----12-12----12-----|
D|------------------------------------------------------|
A|------------------------------------------------------|
E|------------------------------------------------------|
                 (Play through 4x)
Then
*BACK TO WRITTEN RELATIVE TO CAPO ON 5TH
e|---------------------------------------------------------|
B|---------------------------------------------------------|
G|---------------------------------------------------------|
D|------0--2---------0-------------0-0---0---0--2----------|
A|--0-3---------0--3---0----------3-----3---3------3-0-----|
E|-----------------------3------3----------------------3---|

e|------------------------------------------------------------------|
B|------------------------------------------------------------------|
G|------------------------------------------------------------------|
D|------0--2---------0-------------0-0---0---0--2--------------0-2--|
A|--0-3---------0--3---0----------3-----3---3------3-0-----0-3------|
E|-----------------------3------3----------------------3------------|



            
            
Suggest correction
Creating personal tab
Creating personal tab
You can edit any tab online and save it as your Personal.

You can edit, replace or remove any tab part or add personal notes – all changes will be seen only by you.

Personal tabs can be accessed anytime from any device, even offline.
Learn more »
comments
print report bad tab
guest
You may want to rate the tab now too:
select rating
Wanna post a correction for this tab? Suggest correction