Oops, an error
Loading. Please wait.

Yellow Light Chords

version 2
version 2

Whole song

69,889 views 222 this week
9 commentsread comments
1 2 3 4 5
excellent!
x 79
add to favorites
launch autoscroll
font size
0
reset
transpose
0
reset
simplify chords
display chords
guitar tuner
Autoscroll
slow
fast
+/-
esc
set tempo
stop
Help us to improve Ultimate-Guitar.com Take our survey!
×
Difficulty
Capo
novice
2nd fret
Capo on 2nd fret


[Verse]

Am7                        Am           C                           Em
I'm looking for a place to start, but everything feels so different now.

Am7                     Am                C               Em
Just grab a hold of my hand, I will lead you through this wonderland.

Am7            Am          C                  Em
Water up to my knees , but sharks are swimming in the sea.

Am7                   Am                C         Em
Just follow my yellow light, and ignore all those big warning signs.


e|--------------------------------------------------------------------------|
B|---------1--------1-------1-------1--------1-------0-------0--------1-----|
G|-----2-------2--------2-------2-------2-------2--------0-------0----------|
D|---3---3---3---3----------------------------------------------------------|
A|--------------------0---0---0---0---3---3---3---3-------------------------|
E|------------------------------------------------------0---0---0---0-------| 
comments
print report bad tab
9 comments total. Showing first comments.
+9 reply
fabiii 344 wrote on June 23 2012, 11:28 am

Am7 should be fmaj7 xx3210

+3 reply
Lijntjuh 39 wrote on September 11 2012, 02:02 pm

In the picking pattern troughout the whole song, you should change the "C pattern" to a real C pattern.

So instead of this:


e|-----------------|
B|-------1-------0-|
G|---2-------2-----|
D|-----------------|
A|-3---3---3---3---|
E|-----------------|


You should play this:


e|-----------------|
B|-------1-------0-|
G|---0-------0-----|
D|-----------------|
A|-3---3---3---3---|
E|-----------------|


So the A note should be a G note (relative to the capo off course)

Otherwise: Very good tab, thanks! :)

+1 reply
Semoj2 13 wrote on April 4 2013, 04:32 pm

Am7 should be a F and the Em should be Em7 but still nice tab good job ;) !

I want to post or [tab]
guest
You may want to rate the tab now too:
select rating
Please do not post tabs as comments. Select "correction" instead!