Oops, an error
Loading. Please wait.

Yellow Light Chords

version 3
version 3

Whole song

  • All the song's lyrics are written, along with the ... Show more
148 views 3 this week
no commentswrite comment
1 2 3 4 5
2 more votes to show rating
add to favorites
launch autoscroll
font size
0
reset
transpose
0
reset
simplify chords
display chords
guitar tuner
Autoscroll
slow
fast
+/-
esc
set tempo
stop
Help us to improve Ultimate-Guitar.com Take our survey!
×
Author
Difficulty
Capo
novice
2nd fret
About this tab version
All the song's lyrics are written, along with the tab that goes in between the verses. All chords relative to Capo 2. Relatively easy to play. Was this info helpful? Yes No
[Verse 1]

    Fmaj7                  Am        C                   Em7
I'm looking for a place to start and everything feels so different now

     Fmaj7             Am          C                     Em7
Just grab a hold of my hand I will lead you through this wonderland

Fmaj7          Am        C                   Em7
Water up to my knees but sharks are swimming in the sea

     Fmaj7            Am        C                Em7
Just follow my yellow light and ignore all those big . . . warning signs


[Instrumental]

e|-----------------------------------------------------------------------|
B|---------1--------1-------1-------1--------1-------0-------0-----1-----|
G|-----2-------2--------2-------2-------0-------0--------0-------0-------|
D|---3---3---3---3-------------------------------------------------------|
A|--------------------0---0---0---0---3---3---3---3----------------------|
E|------------------------------------------------------0---0---0---0----|   x2


[Verse 2]

Fmaj7                 Am     C             Em7
Somewhere deep in the dark a howling beast hears us talk

  Fmaj7                  Am       C                   Em7
I dare you to close your eyes and see all the colours in disguise

Fmaj7            Am        C                      Em7
Running into the night the earth is shaking and I see a light

    Fmaj7                Am          C          Em7
The light is blinding my eyes as the soft walls eat … us alive


[Instrumental]

e|-----------------------------------------------------------------------|
B|---------1--------1-------1-------1--------1-------0-------0-----1-----|
G|-----2-------2--------2-------2-------0-------0--------0-------0-------|
D|---3---3---3---3-------------------------------------------------------|
A|--------------------0---0---0---0---3---3---3---3----------------------|
E|------------------------------------------------------0---0---0---0----| x8
Suggest correction
Give kudos to tab author, rate the tab!
1 2 3 4 5
comments
print report bad tab
guest
You may want to rate the tab now too:
select rating
Wanna post a correction for this tab? Suggest correction