Oops, an error
Loading. Please wait.

A Sentence Of Sorts In Kongsvinger Bass Tab

version 2
version 2

Whole song

600 views 1 this week
no commentswrite comment
1 2 3 4 5
please rate
add to favorites
launch autoscroll
font size
0
reset
guitar tuner
Tab Pro tools
  • play this tab
  • loop segment
  • change instrument
  • show fretboard
  • metronome
×
Best way to learn
"A Sentence Of Sorts In Kongsvinger"
Autoscroll
slow
fast
+/-
esc
set tempo
stop
ll of the other tabs i found were turned upside down so i turned them around.
0:00
G---------|
D---------|
A-8\------|
E---------|


INTRO
0:21
G----5-5----0-3--|
D--------3-3-----|
A-3-3------------|
E----------------|
          x4
G-----------------|----------------|-------5-5-------0-3-|------5-5-----0-3-|
D-3-3-3-----------|3-3-3-----------|-------------3-3-----|-----------3-3----|
A--------0-0-1-3--|--------0-0-1-3-|-3-3-3---------------|-3-3-3------------|
E-----------------|----------------|---------------------|------------------|

                                                    x4
VERSEG
G-7-5-4-2-|-0-------|-----0-5-|-2—2-----|-----1---|-2---6-1-|-1---1---|
D---------|---3-2-0-|---2-----|-----3-3-|---3--—3-|---3-----|---3---3-|
A---------|---------|-3-------|---------|-4-------|---------|---------|
E---------|---------|---------|---------|---------|---------|---------|

G-7-5-4-2-|-0-------|-----0-5-|-2—2----|-0h4p0h4p0h4p0h4-5-7|-2h5p2h5p2h5p2h5-5-9----|
D---------|---3-2-0-|---2-----|----3-3-|---------------------|-----------------------|
A---------|---------|-3-------|--------|---------------------|-----------------------|
E---------|---------|---------|--------|---------------------|-----------------------|


G-0h4p0h4p0h4p0h4-5-7-|
D---------------------|
A---------------------|
E---------------------|


CHORUS
G----------------|----------------|-------5-5-------0-3-|------5-5-----0-3-|
D-3-3-3----------|-3-3-3----------|------------3-3------|-----------3-3----|
A--------0-0-1-3-|--------0-0-1-3-|-3-3-3---------------|-3-3-3------------|
E----------------|----------------|---------------------|------------------|

                                                  x4
VERSE
G-7-5-4-2-|-0-------|-----0-5-|-2—2-----|-----1---|-2---6-1-|-1---1---|
D---------|---3-2-0-|---2-----|-----3-3-|---3--—3-|---3-----|---3---3-|
A---------|---------|-3-------|---------|-4-------|---------|---------|
E---------|---------|---------|---------|---------|---------|---------|


G-7-5-4-2-|-0-------|-----0-5-|-2—2----|-0h4p0h4p0h4p0h4-5-7-|-2h5p2h5p2h5p2h5-5-9-|
D---------|---3-2-0-|---2-----|----3-3-|---------------------|---------------------|
A---------|---------|-3-------|--------|---------------------|---------------------|
E---------|---------|---------|--------|---------------------|---------------------|

G-0h4p0h4p0h4p0h4-5-7-|
D---------------------|
A---------------------|
E---------------------|

CHORUS
G----------------|----------------|-------5-5-------0-3-|------5-5-----0-3-|
D-3-3-3----------|-3-3-3----------|------------3-3------|-----------3-3----|
A--------0-0-1-3-|--------0-0-1-3-|-3-3-3---------------|-3-3-3------------|
E----------------|----------------|---------------------|------------------|
                                                  x4
BRIDGE
G--------|
D--------|
A--------|
E-10\----|

CHORUS
G----------------|----------------|-------5-5-------0-3-|------5-5-----0-3-|
D-3-3-3----------|-3-3-3----------|------------3-3------|-----------3-3----|
A--------0-0-1-3-|--------0-0-1-3-|-3-3-3---------------|-3-3-3------------|
E----------------|----------------|---------------------|------------------|
                                                  x4
OUTRO
G----------------|----------------|-------5-5-------0-3-|------5-5-----0-3-|
D-3-3-3----------|-3-3-3----------|------------3-3------|-----------3-3----|
A--------0-0-1-3-|--------0-0-1-3-|-3-3-3---------------|-3-3-3------------|
E----------------|----------------|---------------------|------------------|
                                                  x3
G------|
D------|
A-8\---|
E------|

| /  slide up
| \  slide down
| h  hammer-on
| p  pull-off
| ~  vibrato
| +  harmonic
| x  Mute note
comments
We did not receive enough feedback on this tab! Please rate:
print report bad tab
1 2 3 4 5
I want to post or [tab]
guest
You may want to rate the tab now too:
select rating
Please do not post tabs as comments. Select "correction" instead!