Oops, an error
Loading. Please wait.

At Night The Trees Arent Sleeping tab

version 2
version 2

Whole song

  • The other tab was inaccurate and not in the right key.
16 views 3 this week
no commentswrite comment
1 2 3 4 5
3 more votes to show rating
add to favorites
×
Save as Personal and add changes to this tab that will be seen only by you. Learn more ›
×
You can save this tab as Personal to edit and correct it or add notes. All changes will be seen only by you. Learn more »
launch autoscroll
font size
0
reset
how to read this tab
guitar tuner
edit
Autoscroll
slow
fast
+/-
esc
set tempo
stop
About this tab version
The other tab was inaccurate and not in the right key. Was this info helpful? Yes No
Capo 6

[Intro] 
                                                    upstroke
e|----------------------------------------------------|
B|--------------------------------------------------1-|
G|------2-------2-----------------------------------2-|
D|--3-------2-------0---3-------3-------3-------3---3-|
A|--------------------------3-------1-------0-------3-|
E|--------------------------------------------------1-|
    Every  thing is falling apart   yes     I       am

    F      C            F      C              
e|---------0--0--0--0----------0--0--0--0-|
B|--1--1---1--1--1--1---1--1---1--1--1--1-|
G|--2--2---0--0--0--0---2--2---0--0--0--0-|
D|--3--3---2--2--2--2---3--3---2--2--2--2-|
A|--3--3---3--3--3--3---3--3---3--3--3--3-|
E|--1--1----------------1--1--------------|

[Pre-verse]
e|---------------------------------------|
B|---------------------------------------|
G|---------------------------------------|
D|--5-5-5-5------------------------------|
A|--3-3-3-3--3-3-3-3---3-3-3-3--3-3-3-3--|
E|-----------6-6-6-6---5-5-5-5--3-3-3-3--|
    watch    ing  me   watch    birds  watch

    F      C            F      C            F      C
e|---------0--0--0--0----------0--0--0--0----------0--0--0--0----------|
B|--1--1---1--1--1--1---1--1---1--1--1--1---1--1---1--1--1--1----------|
G|--2--2---0--0--0--0---2--2---0--0--0--0---2--2---0--0--0--0----------|
D|--3--3---2--2--2--2---3--3---2--2--2--2---3--3---2--2--2--2----------|
A|--3--3---3--3--3--3---3--3---3--3--3--3---3--3---3--3--3--3----------|
E|--1--1----------------1--1----------------1--1-----------------------|
    people

e|---------------------------------------|
B|---------------------------------------|
G|---------------------------------------|
D|--5-5-5-5------------------------------|
A|--3-3-3-3--3-3-3-3---3-3-3-3--3-3-3-3--|
E|-----------6-6-6-6---5-5-5-5--3-3-3-3--|
    watch    ing  me   watch    birds  watch

    F      C            F      C              
e|---------0--0--0--0----------0--0--0--0-|
B|--1--1---1--1--1--1---1--1---1--1--1--1-|
G|--2--2---0--0--0--0---2--2---0--0--0--0-|
D|--3--3---2--2--2--2---3--3---2--2--2--2-|
A|--3--3---3--3--3--3---3--3---3--3--3--3-|
E|--1--1----------------1--1--------------|
    people
   
[Verse]
  E                 Am
I wear my bowtie to bed,
            C       E       C              F    C
Because I'm waiting for the gorgeous young man
E             Am
Hiding in the spaces.
     C        E     C              F
That darkness hides gorgeous young men.


[Intro part]
                                                    upstroke
e|----------------------------------------------------|
B|--------------------------------------------------1-|
G|------2-------2-----------------------------------2-|
D|--3-------2-------0---3-------3-------3-------3---3-|
A|--------------------------3-------1-------0-------3-|
E|--------------------------------------------------1-|
    Every  thing is falling apart   yes     I       am

[Pre-verse]
e|---------------------------------------|
B|---------------------------------------|
G|---------------------------------------|
D|--5-5-5-5------------------------------|
A|--3-3-3-3--3-3-3-3---3-3-3-3--3-3-3-3--|
E|-----------6-6-6-6---5-5-5-5--3-3-3-3--|
    watch    ing  me   watch    birds  watch

    F      C            F      C            F      C
e|---------0--0--0--0----------0--0--0--0----------0--0--0--0----------|
B|--1--1---1--1--1--1---1--1---1--1--1--1---1--1---1--1--1--1----------|
G|--2--2---0--0--0--0---2--2---0--0--0--0---2--2---0--0--0--0----------|
D|--3--3---2--2--2--2---3--3---2--2--2--2---3--3---2--2--2--2----------|
A|--3--3---3--3--3--3---3--3---3--3--3--3---3--3---3--3--3--3----------|
E|--1--1----------------1--1----------------1--1-----------------------|
    people

e|---------------------------------------|
B|---------------------------------------|
G|---------------------------------------|
D|--5-5-5-5------------------------------|
A|--3-3-3-3--3-3-3-3---3-3-3-3--3-3-3-3--|
E|-----------6-6-6-6---5-5-5-5--3-3-3-3--|
    watch    ing  me   watch    birds  watch

    F      C            F      C              
e|---------0--0--0--0----------0--0--0--0-|
B|--1--1---1--1--1--1---1--1---1--1--1--1-|
G|--2--2---0--0--0--0---2--2---0--0--0--0-|
D|--3--3---2--2--2--2---3--3---2--2--2--2-|
A|--3--3---3--3--3--3---3--3---3--3--3--3-|
E|--1--1----------------1--1--------------|
    people

[Verse]
   E                           Am
If we are only waiting here to die.
   C            E      C    F      C
At least let me put my arms around you.
    E                     Am
Why try to keep it from myself,
        C        E       C          F      
When it feels so good to sing about love?

[Outro] 
e|----------------------------------------------------|
B|--------------------------------------------------1-|
G|------2-------2-----------------------------------2-|
D|--3-------2-------0---3-------3-------3-------3---3-|
A|--------------------------3-------1-------0-------3-|
E|--------------------------------------------------1-|
    Every  thing is falling apart   yes     I       am

            
            
Suggest correction
Creating personal tab
Creating personal tab
You can edit any tab online and save it as your Personal.

You can edit, replace or remove any tab part or add personal notes – all changes will be seen only by you.

Personal tabs can be accessed anytime from any device, even offline.
Learn more »
Give kudos to tab author, rate the tab!
1 2 3 4 5
comments
print report bad tab
guest
You may want to rate the tab now too:
select rating
Wanna post a correction for this tab? Suggest correction