Oops, an error
Loading. Please wait.

Blank Husband Epidemic Bass Tab

1,014 views 1 this week
no commentswrite comment
1 2 3 4 5
please rate
add to favorites
launch autoscroll
font size
0
reset
guitar tuner
Tab Pro tools
  • play this tab
  • loop segment
  • change instrument
  • show fretboard
  • metronome
Autoscroll
slow
fast
+/-
esc
set tempo
stop
Difficulty
advanced
Song: The Blank Husband Epidemic
Band/Artist: of Montreal
Album: Aldhil's Arboretum
Label: Kindercore Records

Tuning: (Standard)  E A D G

Key: ~~ - Let Ring
     /  - Slide
     h  - Hammer on
     p  - Pull off


G|-------------13h15-13-------------13----15----17----15----13----|
D|-------13-15----------15-------15----15----15----15----15----15-|
A|----15-------------------15-13----------------------------------|
E|-13-------------------------------------------------------------|

G|-------14----16-14---------------------------------------------16-13-------|
D|----16----16-------16---------14----14h16-14-------------14----------14----|
A|-14-------------------16---16----16----------16-13----16----16----------14-|
E|-------------------------14------------------------14----------------------|

G|----------------------13----------------------16-13-|
D|----13-------13----11----10-11-13-11-10----14-------|
A|-11----11-11----11----------------------12----------|
E|----------------------------------------------------|

G|-----------------------|
D|------------5-------7--|
A|---------------------7-|
E|-0-12-0-2-3---3-4-5----|

G|-------------13-18-----------------------------------------------------------------------------------|
D|-------14-16-------16----14-14h16-14h16-14-------------------------14-16----------------------14-16--|
A|----16----------------16-------------------16----14----14-16-14-16----------14----14-16-14-16--------|x2
E|-14-------------------------------------------14----17-------------------14----17--------------------|

G|------13-14-13-------------------------------------------|
D|--------------14--14-14----------------------------------|
A|-12~--------------------14----11-12-11----12-11----14-12-|
E|---------------------------12----------12-------12-------|

G|------------------------------------------------------|
D|-14-11--11-12-13--13-12-11--11-12-13-13h14p13-11------|
A|-------------------------------------------------14/7-|
E|------------------------------------------------------|

G|----------------------13----------------------16-13-|
D|----13-------13----11----10-11-13-11-10----14-------|
A|-11----11-11----11----------------------12----------|
E|----------------------------------------------------|

G|-----------------------|
D|------------5-------7--|
A|---------------------7-|
E|-0-12-0-2-3---3-4-5----|

G|-------------13-18----------------------------------------------------------------------------------|
D|-------14-16-------16----14-14h16-14h16-14-------------------------14-16----------------------14-16-|
A|----16----------------16-------------------16----14----14-16-14-16----------14----14-16-14-16-------|x 2
E|-14-------------------------------------------14----17-------------------14----17-------------------|

G|------14-14-13-------------------------------------------|
D|--------------14--14-14----------------------------------|
A|-12~--------------------14----11-12-11----12-11----14-12-|
E|---------------------------12----------12-------12-------|

G|---------------16-15-14-13h14p13----------------------------14/7-|
D|-11~--11-12-13-------------------14-13-11-13-14-13-11-13-11------|
A|-----------------------------------------------------------------|
E|-----------------------------------------------------------------|

G|-------------------------------------------13----14-14-----------------------------------------------------|
D|-----7-----9-------11----13-13----13-12-12----12-------12-11-11-14------14-14-12-12------------------------|
A|-7-7---9-9---11-11----11-------11---------------------------------12-12-------------12-11-12-14-14-12-14/7-|
E|-----------------------------------------------------------------------------------------------------------|

G|-------------------------------------------13----14-14----------10-9/8-|
D|-----7-----9-------11----13-13----13-12-12----12-------12--------------|
A|-7-7---9-9---11-11----11-------11-------------------------13-13--------|
E|-----------------------------------------------------------------------|

G|-----------8h10-8------------8-10-12-10-8------|
D|------8-10--------10------10--------------10/8-|
A|---10----------------10-8----------------------|
E|-8---------------------------------------------|

G|-------13----15----17----15----13----|
D|----15----15----15----15----15----15-|
A|-13----------------------------------|
E|-------------------------------------|

G|-------14----16-14---------------------------------------------16-13-------|
D|----16----16-------16---------14----14h16-14-------------14----------14----|
A|-14-------------------16---16----16----------16-13----16----16----------14-|
E|-------------------------14------------------------14----------------------|

G|----------------------13----------------------16-13-----|
D|----13-------13----11----10-11-13-11-10----14-----------|
A|-11----11-11----11----------------------12--------------|
E|----------------------------------------------------12~-|
comments
We did not receive enough feedback on this tab! Please rate:
print report bad tab
1 2 3 4 5
I want to post or [tab]
guest
You may want to rate the tab now too:
select rating
Please do not post tabs as comments. Select "correction" instead!