Oops, an error
Loading. Please wait.

Forecast Fascist Future Tab

version 1
version 1

Intro

Whole song

1,965 views 1 this week
1 commentread comment
1 2 3 4 5
please rate
add to favorites
launch autoscroll
font size
0
reset
how to read this tab
guitar tuner
Autoscroll
slow
fast
+/-
esc
set tempo
stop
Help us to improve Ultimate-Guitar.com Take our survey!
×
Difficulty
novice
First tab...go easy.  Tried to find it online, no luck...but I think this sounds pretty

 Tabbed from a live, acoustic performance:
http://video.google.com/videoplay?docid=2437809123086301890&q=of+montreal+kevin+solo
Tabbed by Spotts.

|-6-6-6-6-x-6-6-x-x-8--8--8--|
|-6-6-6-6-x-6-6-x-x-8--8--8--|
|-7-7-7-7-x-8-8-x-x-10-10-10-|
|-8-8-8-8-x-8-8-x-x-10-10-10-|
|-8-8-8-6-x-6-6-x-x-8--8--8--|
|-6-6-6-6-x-----x-x----------|

|-6-6-6-6--2-2-2-2--4-4-4-4-4--2-2-----|
|-6-6-6-6--2-2-2-2--4-4-4-4-4--2-2-----|
|-7-7-7-7--3-3-3-3--6-6-6-6-6--3-3-----|
|-8-8-8-8--4-4-4-4--6-6-6-6-6--4-4-----|
|-8-8-8-6--4-4-4-4--4-4-4-4-4--4-4-----|
|-6-6-6-6--2-2-2-2-------------2-2-----|

Just listen to the song for the right rhythm
Suggest correction
Give kudos to tab author, rate the tab!
1 2 3 4 5
comments
print report bad tab
1 comment total.
0 reply
wcsn44 72 wrote on December 31 2007, 04:23 pm

close, but it should
be
|-6-6-8--6-2-4-2-|
|-6-8-10-6-2-6-2-|
|-7-8-10-7-3-6-3-|
|-8-8-10-8-4-6-4-|
|-8-6-8--8-4-4-4-|
|-6-----6-2---2
-|
AKA: Bb Eb Fb Bb Gb Db Gb
keep in mind those are just the chords, not the timing.

guest
You may want to rate the tab now too:
select rating
Wanna post a correction for this tab? Suggest correction