Oops, an error
Loading. Please wait.

Id Engager Tab

4,381 views 6 this week
no commentswrite comment
1 2 3 4 5
x 3
add to favorites
launch autoscroll
font size
0
reset
how to read this tab
guitar tuner
Autoscroll
slow
fast
+/-
esc
set tempo
stop
Help us to improve Ultimate-Guitar.com Take our survey!
×
Author
Id Engager by of Montreal

Tabbed by pixiesrule73 with help from leatherface74


E       G


Dm        Gm7   C7
F         Am    C
F

Dm        Gm7   C7
F         Am    C
F


Dm      Gm        Dm      Edim
Dm      Gm        Dm      Edim  (pause)


            Dm                       Gm                         Dm
He’s just a slutty little flirt, and sister, he’s only going to hurt you
Edim             Dm                            Gm
     Ladies, I’m screaming out to you from the depths of this phallocentric 
Dm         Edim
tyranny
        Dm                         Gm
My self-concept is awaiting your invasion
                   Dm             Edim
Clumsy penetration punishment, oh yeah!
         Dm                  Gm                          Dm        Edim
When the hope of another wet nightmare is all we have to live for


      Dm                   Gm7                   C7                F
Can’t help it if its true, don’t want to be your man, just want to play with you
Am             C              F
Play with you, play with you, play with you 

I can’t help it if its true, don’t want to be your man, just want to play with you
Play with you, play with you

He predicted the 8-bit empire, now he occupies the blur as well
When asking why their kisses are sorrowful, remember the howl of our first verse


N.C.

Ninjas
Prove it
Right


        Bb             F     Am                    C   Dm           F                          
I can’t help it if its true, don’t want to be your man,  play, play, (I just wanna play)
        N.C.
 with *scream*

I can’t help it if its true, don’t want to be your man, just want to play with you 





Intro bass: (0:00)

Bass
   E               G
g|-------------------------9--9-12\(9)-|
d|--------------------------10---------|
a|-7---7---7---7---10\-----------------|
e|---00--00--00--0---------------------|


Intro chorus
(0:05) Keyboard
   Dm      Gm7 Bb C  F          Am  C    F
e|-13-----------------------------------------------------|
b|---------15-----15------13----13--15-13-----------------|
g|-------------15----14------14----------14--12h14-12h14--|
d|--------------------------------------------------------|
a|--------------------------------------------------------|
e|--------------------------------------------------------|

   Dm      Gm7 Bb C  F          Am  C    F
e|-13-----------------------------------------------------|
b|---------15-----15------13----13------------------------|
g|-------------15----14------14-----15---14-----14-14-----|
d|--------------------------------------------------------|
a|--------------------------------------------------------|
e|--------------------------------------------------------|



Guitar  
   Dm            Gm7            F             Am      C     F
e|-----------10-------------10--8--8------8---8--8------12--8--8-8----8---|
b|-10-1010---10--11-1111----11--10-1010---10--10-1010---13--10-1010---10--|
g|-10-1010-------10-1010--------10-1010-------9--9-9--------10-1010-------|
d|-12-1212-------12-1212--------------------------------------------------|
a|------------------------------------------------------------------------|
e|------------------------------------------------------------------------|






Bass
g|---7-------7---10---12---------12---15---10-------10-7------9---9-----------10--10--------|
d|-------7-----------------12------------------10--------10-7---7-----10--10----------------|
a|-5---5---5---8---10---10----10---13----8---8----8--------------------------8--8---8-3-3-4-|
e|------------------------------------------------------------------8---8-------------------|

Bass
g|---7-----7--10---12----------12---15--10-------10-7------9---9-----------10---10-10----------|
d|------7-----------------12-----------------10-------10-7---7----10---10-------------12-10----|
a|-5--5---5--8---10---1010---10---13---8---8----8-------------------------8---8-------------12-|
e|---------------------------------------------------------------8---8-------------------------|







Instrumental verse


Bass 1
   Dm              Gm              Dm              Edim
g|-----------------------------------------------------------------|
d|-----------------------------------------------------------------|
a|-5-5---5-5-7-8-------------------5-5---5-5-7-8---7-7---7-108-10--|
e|-----------------3-3---5-6-5-6-8---------------------------------|
Bass 2
g|---10--10109-7---------------9-----10--10109-7-----12--1212109---|
d|-------------------8---8-8-10------------------------------------|
a|-----------------------------------------------------------------|
e|-----------------------------------------------------------------|


Low keyboard(drop d)
   Dm              Gm                Dm              Edim
e|------------------------------------------------------------------|
b|------------------------------------------------------------------|
g|------------------------------------------------------------------|
d|-------------3---------------------------------3---2-2---2-5---5--|
a|-5-5---5-5-----------------------3-5-5---5-5----------------------|
D|-----------0-----5-5---5-7-8-7-8-------------0---------------5----|


(0:30)
Keyboard
e|-----------------|
b|-----------------|
g|---------7-------|
d|-----7-5---7~----|
a|-----------------|
e|-----------------|


End with

(0:38)
Xylophone
   Edim
e|--------------------------|
b|-----------------5--------|
g|---------3---5------------|
d|-----5--------------------|
a|--------------------------|
e|--------------------------|
Bass
g|--------------------------|
d|/9---------------12-------|
a|--------------------------|
e|--------------------------|



Verse 1:(0:46)

Just basses with this fill at the end.

(0:59)
GUitar 1
Dm           Edim
e|----------------------13----------------------|
b|-----------13-15--13----------13h15----13-----|
g|--12-14-------------------14------------------|
d|--------15------------------------------------|
a|----------------------------------------------|
e|----------------------------------------------|
GUitar 2
e|----------------------------------------------|
b|----------------------13----------------------|
g|-----------12-14--12----------14h15p14--------|
d|-----15-12----------------14-----------15-----|
a|--13------------------------------------------|
e|----------------------------------------------|


Verse 2:(1:02)

Same as verse but with the low keyboard from the instrumental verse.
Add this fill at the end.

(1:15)
Guitar 1(lower volume)
e|----12h13p12-8h10p8-5h8p5-3h5p3-------------|
b|--------------------------------5h6p5h6p5---|
g|--------------------------------------------|
d|--------------------------------------------|
a|--------------------------------------------|
e|--------------------------------------------|
Guitar 2
e|-----8h10p8--5h8p5--3h5p3-------------------|
b|--------------------------5h6p5-------------|
g|--------------------------------5h7p5h7p5---|
d|--------------------------------------------|
a|--------------------------------------------|
e|--------------------------------------------|


Chorus 1:(1:18)

Same as intro chorus, but without the keyboard solo. Instead this is used:

Keyboard
   Dm         Gm7       F     Am    C    F
e|------10-13------8-10------------------------|
b|-10---------11--------10---------------------|
g|-------------------------10-9(quick cut-off)-|
d|---------------------------------------------|
a|---------------------------------------------|
e|---------------------------------------------|

   Dm         Gm7       F     Am    C    F
e|------10-13------8-10------------------------|
b|-10---------11--------10---------------------|
g|---------------------------------------------|
d|---------------------------------------------|
a|---------------------------------------------|
e|---------------------------------------------|


Verse 3(1:38)

Just basses.

Verse 4:(1:54)

Same as instrumental verse but with this added.


Guitar with echo
        Dm      Gm      Dm      Edim    Dm      Gm      Dm      Edim
e|----|-5-----888-----888---------------5-----888-----888----------|
b|-88-|-----------------------6-------------------------------6/8--|
g|----|------------------------------------------------------------|
d|----|------------------------------------------------------------|
a|----|------------------------------------------------------------|
e|----|------------------------------------------------------------|



Breakdown(2:10)

Only percussion until:

(2:25)

Bass 1
       Bb              F               Am              C
g|-17--15----------14----------------------------------12----------12-|
d|---------------------15--------------14----------14-----------------|
a|---------------------------------15---------------------------------|
e|--------------------------------------------------------------------|
Bass 2
g|-------------------------------------------------------------1212---|
d|-------------1515----------------------------1414--------1010-------|
a|---------1313----------------1515--------1212-----------------------|
e|-------------------------1313---------------------------------------|


Bass 1
   Dm                              F
g|---------------------------------------------14---------------------|
d|-12--------------12----------12--15--------------15-----------------|
a|-------------12-----------------------------------------------------|
e|--------------------------------------------------------------------|
Bass 2
g|--------------------------------------------------------------------|
d|--------------------------------------------------------------------|
a|---------1212------------1212------------1515------------1515-------|
e|-----1010------------1010------------1313------------1313-----------|


Chorus 2:(2:36)

Same as chorus 1



Outro solo:(over chorus chords)
Guitar 1

e|----------10-8-/13-10----13--13--8h10p8-------------10-----8---------|
b|--------8-------------------------------10-------10----8-----8-10----|
g|-7-9-10---------------------------------------10------------------10-|
d|---------------------------------------------------------------------|
a|---------------------------------------------------------------------|
e|---------------------------------------------------------------------|
GUitar 2
e|---------------------------------------------------------------------|
b|---------------------------------------------------------------------|
g|---------------------------------------------------------------------|
d|--------5-7----------------------------------------------------------|
a|-5-7-8---------------------------------------------------------------|
e|---------------------------------------------------------------------|


Continue chorus like choruses 1 & 2.



Outro:(3:15)
The E major seventh is held over the other notes.

Strings
   Emaj7        (E7)
e|-777-7-7(hold)-----------------|
b|-999-9-9-----------------------|
g|-888-8-8-----------------------|
d|-999-9-9-----------------------|
a|-777-7-7-----------------------|
e|-------------------------------|
Strings 2
e|-------------------------------|
b|-------------------------------|
g|---------------9-9---9-9---9-9-|
d|-------------------0-----0-----|
a|-------------------------------|
e|-------------------------------|
Suggest correction
Give kudos to tab author, rate the tab!
1 2 3 4 5
comments
print report bad tab
guest
You may want to rate the tab now too:
select rating
Wanna post a correction for this tab? Suggest correction