Oops, an error
Loading. Please wait.

Kissing In The Grass bass

13 views 1 this week
no commentswrite comment
1 2 3 4 5
3 more votes to show rating
add to favorites
×
Save as Personal and add changes to this tab that will be seen only by you. Learn more ›
×
You can save this tab as Personal to edit and correct it or add notes. All changes will be seen only by you. Learn more »
launch autoscroll
font size
0
reset
guitar tuner
edit
Autoscroll
slow
fast
+/-
esc
set tempo
stop
About this tab version
Includes tab for the bass and piano solo, although the bass solo might not be accurate. Was this info helpful? Yes No
of Montreal - Kissing in the Grass
Track #12 of Aldhils Arboretum (2002)
tabbed by sputnikfive

[Intro]
G|----18-------|
D|----17-------|
A|-------------|
E|-------------|

(0.04 - 0.41)
G|---9-9--------9-9--------9-9-------9-9--------8-8--------8-8---------------|
D|--------9----------7h9--------9---------9-----------8--------8-7-6---------|
A|-7----------7-----------7--------7---------6-----------6-----------6-------|
E|-----------------------------------------------------------------------4---|

G|---------------------------------4-4-------------3-5---12-10----18---------|
D|-----------------------4-4-------------------5------------------17---------|
A|--------------------2-------2-2-------5-4-3--------------------------------|
E|-----4--3-4-3-4-3----------------------------------------------------------|

G|----9-9------9-9-----9-9-------9-------------------------------------------|
D|--------9--------9-------7h9-----------------------------------------------|
A|--7--------7-------7---------7---------------------------------------------|
E|---------------------------------------------------------------------------|

[Verse] 
(0.42 - 1.09)
   Kissing in the grass...
G|---9-9--------9-9---------9-9---------9-9--------8-8-----------------------|
D|-------7h9--------7h9---------7h9-----------9---------8--------------------|
A|-7----------7------------7----------7-----7----6---------6-----------------|
E|---------------------------------------------------------------------------|

                               I do tend to believe...
G|-8-8----------------------------------------4-4--------------3-5---12-10---18----|
D|--------8-7-6-----------------------4-4-------------------5----------------17----|
A|-----6---------6-----------------2-------2-2-----2-5-4-3-------------------------|
E|------------------4--3-4-3-4-3---------------------------------------------------|

(1.10 - 1.37)
   Than Kissing in the grass...
G|---9-9--------9-9--------9-9----------9-9-----9-----8-8---------------------|
D|-------7h9--------7h9---------9-9-----------9-----------8-------------------|
A|-7----------7----------7-----------7------7-------6--------6----------------|
E|---------------------------------------------------------------------------|

                               I do tend to believe...
G|-8-8---------------------------------------4-4--------------3-5---12-10---18----|
D|--------8-7-6----------------------4-4-------------------5----------------17----|
A|-----6---------6----------------2-------2-2-----2-5-4-3-------------------------|
E|------------------4--4-3-4-3--------------------------------------------------|

(1.38-1.46)
G|----9-9--------9-9--------9------------------------------------------------|
D|--------7h9---------9------9-----------------------------------------------|
A|-7----------7---------7----------------------------------------------------|
E|----------------------------0----------------------------------------------|

[Bass Solo] 
(1.47 - 2.14)
G|-9/13-13-13-14-13---14--13-13-14-13--------------11-12-12-13-12------------|
D|-----------------------------------14-14---13-14-----------------13-13-----|
A|---------------------------------------------------------------------------|
E|---------------------------------------------------------------------------|

G|--13-14-15-----------------------------------------4-5-6h7-8-7-8h9-10h11---|
D|-----------11-12-13------------------------------4-------------------------|
A|--------------------11-12-13-------------1-2-2h4---------------------------|
E|-------------------------------4-3-4-3-4-----------------------------------|

G|-8--5h7-7--7-7-----5-7---6--18---------------------------------------------|
D|---------------8-9----------17---------------------------------------------|
A|---------------------------------------------------------------------------|
E|---------------------------------------------------------------------------|

[Piano Solo] 
(2.15 - 2.42)
G|---9-9-------9-9--------9-9---------9-9-----9----8-8-8------8-8---------------|
D|--------9--------7h9---------9-9----------9-------------8-------8-6-5---------|
A|-7---------7----------7-----------7-----7------6-----------6----------6-------|
E|------------------------------------------------------------------------4-----|

G|------------------2-4--4--4-------------3--5---12--10---18--------------------|
D|--------------2/4-------------3-4-----5-----------------17--------------------|
A|---------1-2----------------2-----2-3-----------------------------------------|
E|-3-4-3-4----------------------------------------------------------------------|

(2.43 - 3.10) 
G|---9-9--------9-9--------9-9----------9-9------8-8----------6-7-8-----------|
D|-------7h9--------7-9---------9-9---------9---------6-7-8---------6-7-8-----|
A|-7----------7----------7-----------7---------6------------6-------------6---|
E|---------------------------------------------------------------------------|

G|-------------------------------2-3-4-------------3-5--12-10--18------------|
D|-8-6------------4-4-----2-3-4--------4-3-2----5--------------17------------|
A|-------6-----2------2-2--------------------3-------------------------------|
E|---------4-----------------------------------------------------------------|

[Outro] 
(3.11 - 3.39)
G|---9-9--------9-9--------9-9--------9-9--------9-9--15-14-13---------------|
D|-------9----------7h9--------9-9--------7h9--------------------------------|
A|-7----------7----------7----------7----------7---------------16-15-14------|
E|---------------------------------------------------------------------------|

G|---------------------------------------------------------------------------|
D|---------------------------------------------------------------------------|
A|--14-12-11-----------------------------------------------------------------|
E|-----------0---------------------------------------------------------------|


************************************

| h   Hammer-on
| /   Slide up

************************************

            
            
Suggest correction
Creating personal tab
Creating personal tab
You can edit any tab online and save it as your Personal.

You can edit, replace or remove any tab part or add personal notes – all changes will be seen only by you.

Personal tabs can be accessed anytime from any device, even offline.
Learn more »
Give kudos to tab author, rate the tab!
1 2 3 4 5
comments
print report bad tab
guest
You may want to rate the tab now too:
select rating
Wanna post a correction for this tab? Suggest correction