Oops, an error
Loading. Please wait.

Onomastica bass

317 views 1 this week
no commentswrite comment
1 2 3 4 5
2 more votes to show rating
add to favorites
×
Save as Personal and add changes to this tab that will be seen only by you. Learn more ›
×
You can save this tab as Personal to edit and correct it or add notes. All changes will be seen only by you. Learn more »
launch autoscroll
font size
0
reset
guitar tuner
edit
Autoscroll
slow
fast
+/-
esc
set tempo
stop
OFFLAGA DISCO PAX - ONOMASTICA
ALBUM: BACHELITE (2008) I

INTRO
E ---------------------------------------------|
A --3-3----3--3-3------------------------------|
D -------5--------5---1-1----1--1-1-----1------|
G -------------------------3----------3--------|

VERSE

E ---------------------------------------------|
A --3-3----3--3-3------------------------------|
D -------5--------5---1-1----1--1-1-----1------|
G -------------------------3----------3--------|

E ---------------------------------------------|
A --3-3----3--3-3------------------------------|
D -------5--------5---1-1--3-1---1-1--3-1------|
G ---------------------------------------------|

LYRICS
Niente nomi di santi da lunario.
Nessun nome di santo da lunario.

Flore, faune, fiumi, laghi, centrali elettriche.
Anagrammi, melodrammi, moschettieri.
Da leggere come si scrivono.
Pronunce sballate per eroi d'ogni specie futuribile.
Perchè un nome era tutto quel che davi.

Adertito Atos Babel Boiler Demos Edmo Eles Enver Engels
Henghel Enos Ero Eves Eider Firmato Frea Glennis Ibanez
Jaures Jaures...
Jean Jaurès era un dirigente del Partito Socialista Francese.
Venne ucciso prima del 1917.

Idea Idillio Idolo Iller Illo Iuna
James Jones Katiuscia
Lena Liusca Lidosca Listan
Maude Malfa Miroslav
Neda Nemma Nullo Nuova Nives
Olmes Oriente Orio Olgher Offerto
Speciale Saldo Seno River Tita Tundra
Uber Urano Vilmo Volmer
Wilmer Wagner Wainer Yenissei... Yenissei...

Flore, faune, fiumi, laghi, centrali elettriche.
Anagrammi, melodrammi, moschettieri.
Pronunce sballate per eroi d'ogni specie eventualmente futuribile.
E un nome era tutto quel che davi.
Tutto quel che davi.


JAH WOBBLE IS GOD!!!

            
            
Suggest correction
Creating personal tab
Creating personal tab
You can edit any tab online and save it as your Personal.

You can edit, replace or remove any tab part or add personal notes – all changes will be seen only by you.

Personal tabs can be accessed anytime from any device, even offline.
Learn more »
Give kudos to tab author, rate the tab!
1 2 3 4 5
comments
print report bad tab
guest
You may want to rate the tab now too:
select rating
Wanna post a correction for this tab? Suggest correction