Oops, an error
Loading. Please wait.

El Campito Bass

969 views 6 this week
no commentswrite comment
1 2 3 4 5
3 more votes to show rating
add to favorites
×
Save as Personal and add changes to this tab that will be seen only by you. Learn more ›
×
You can save this tab as Personal to edit and correct it or add notes. All changes will be seen only by you. Learn more »
save as personal
new!
launch autoscroll
font size
0
reset
guitar tuner
Autoscroll
slow
fast
+/-
esc
set tempo
stop
    Esta tablatura solo corresponde al solo de bajo, saludos


t: tapping   h: salto  /: deslizar  ^: curvar la nota


       t  t t                  t t t                   ^
G -----12-7-9-  (16 veces) --- 14-7-9- (12 veces) ---17 17
D --------------------------------------------------------
A --------------------------------------------------------
E --------------------------------------------------------


  -------------12---------12/11-----------------------------
  ----12h14-14------12h14------12h14-12/11------12----------
  -----------------------------------------12h14--14-12-14-10
  ----------------------------------------------------------


  ------------------------------------------
  ---------------12-------------------------
  -------10-12/14--14---12/14-12-10-12-10---
  -10h12------------------------------------

              ^            ^               ^
  -------12-14 14-12--12-14  ---------12-14 14-12------12-------------------
  -12h14------------14----------12h14------------12/14---14--12-------------
  --------------------------------------------------------------14-12-12-10-
  --------------------------------------------------------------------------

              ^            ^               ^
  -------12-14 14-12--12-14  ---------12-14 14-12/21-------------------------
  -12h14------------14----------12/14----------------------------------------
  ---------------------------------------------------------------------------
  ---------------------------------------------------------------------------

             ^            ^
  ----16---15 ----16----15 ---16----15-15-12-14-12
  -14---14-----14----14----14----14---------------
  ------------------------------------------------
  ------------------------------------------------


  12/14-12-------12------------------------------------------------
  ---------14-14----14-12-12-------------------------------------12
  ---------------------------14-14-12-12-------12-10----10-12-14---
  ---------------------------------------15-12-------12------------


  ----11-10-------9-8-----7-6--------------------------------------------------
  -12-------11-10-----9-7-----7---7/5---5-7-5--------12-14-12-16-12----12-14-12
  ------------------------------------7--------12h14----------------14---------
  -----------------------------------------------------------------------------

  ---------------------------------------------------------------------------
  ----------12----------14----------17-----------14----------12-----------14-
  -12-12-14----14-14-17----17-17-19-----14-14-17----12-12-14-----14-14-17----
  ---------------------------------------------------------------------------

       ^
  12h14 14-12-14-12---------------12-14-12-12-14-12-
  ------------------------12h1412-------------------
  ------------------12h14---------------------------
  --------------------------------------------------


     ^                  ^
  -14  -12------12----14  -12-----12--
  --------14-14----14--------14-14--14
  ------------------------------------
  ------------------------------------


  -19-19-19-18-18-16-16-18-18-16-16-16-14-14-16-16-14-14-12-12-----12/14-12
  --------------------------------------------------------------14---------
  -------------------------------------------------------------------------
  -------------------------------------------------------------------------


  Final
  ---12-------7-
  -12--11-9-7-6-
  --------------
  --------------0
Suggest correction
Give kudos to tab author, rate the tab!
1 2 3 4 5
comments
print report bad tab
guest
Wanna post a correction for this tab? Suggest correction