Oops, an error
Loading. Please wait.

Eres Un Cabron Hijo Puta - Agujeritos De Acero Bass Tab

92 views 1 this week
no commentswrite comment
1 2 3 4 5
3 more votes to show rating
add to favorites
launch autoscroll
font size
0
reset
guitar tuner
Autoscroll
slow
fast
+/-
esc
set tempo
stop
Help us to improve Ultimate-Guitar.com Take our survey!
×
Intro


-------------------
6/7-7-----------4-5
------7/8-8-5-7----
-------------------


Tapping (eres un cabron...)


-----15---15---------15---15---------14---14---------14---14---
--14---------14---14--------14----13---------13---13---------13
--------------------------------8-------8-------8-------8------
8-------8-------8-------8--------------------------------------


-----15---15---------15---15---------14---14---------14---14---
--14---------14---14--------14----13---------13---13---------13
--------------------------------8-------8-------8-------8------
8-------8-------8-------8--------------------------------------


Cortes


-------------
-------------
-------------
3--5--1--1--3


Tapping (eres un cabron...)


-----15---15---------15---15---------14---14---------14---14---
--14---------14---14--------14----13---------13---13---------13
--------------------------------8-------8-------8-------8------
8-------8-------8-------8--------------------------------------


-----15---15---------15---15---------14---14---------14---14---
--14---------14---14--------14----13---------13---13---------13
--------------------------------8-------8-------8-------8------
8-------8-------8-------8--------------------------------------


Cortes


-------------
-------------
-------------
3--5--1--1--3


iNTERVALO

----------------2-3-4-5-
----2--2-3-5--5---------
3-5---------------------
------------------------


2-3--3-4--3-3-3-4---------------------
--------------------------------------
------------------4-4-4-6-2-2-2-4--4-6
--------------------------------------


Punteo que hace el organo con un can-can tipico de las pelis del oeste


----------7---------------------------
---8-8-10---10-8---------8------------
10---------------10-9/10---10-8------8
--------------------------------10-8--


----------7---------------------------
---8-8-10---10-8---------8------------
10---------------10-9/10---10-8-------
--------------------------------10-8-6


----------8--------------8----------------------8--------
---9-9-11---11-9-----------11-9----9-----9-9-11---11-9---
11---------------11-9-11--------11----11---------------11
---------------------------------------------------------


hijo putaaa, hijo puta hijo puta..


---------------------------------------------------------------
---------------------------------------------------------------
---------------------------------------------------------------
3-3-3-3-3-3-3-3-3-3-3-3-3-3-3-3-2-2-2-2-2-2-2-2-2-2-2-2-2-2-2-2


estribillo, riff normal


----------------------------------------------------------------
----------------------------------------------------------------
4-4-4-4-4-4-4-4-----------------4-4-4-4-4-4-4-4-----------------
----------------2-2-2-2-2-2-2-2-----------------2-2-2-2-2-2-2-2-


Cortes


-------------
-------------
-------------
3--5--1--1--3


estribillo, riff normal


----------------------------------------------------------------
----------------------------------------------------------------
4-4-4-4-4-4-4-4-----------------4-4-4-4-4-4-4-4-----------------
----------------2-2-2-2-2-2-2-2-----------------2-2-2-2-2-2-2-2-


Cortes


-------------
-------------
-------------
3--5--1--1--3


Slap funky


----------6----------------------6------------
----------------4----------------------4------
6h4-6h4-4---4h6---4h6--6h4-6h4-4---4h6--------
-----------------------------------------2-3-4   esto se repite hasta que acaba


estribillo, riff normal


----------------------------------------------------------------
----------------------------------------------------------------
4-4-4-4-4-4-4-4-----------------4-4-4-4-4-4-4-4-----------------
----------------2-2-2-2-2-2-2-2-----------------2-2-2-2-2-2-2-2-


Cortes


-------------
-------------
-------------
3--5--1--1--3


estribillo, riff normal


----------------------------------------------------------------
----------------------------------------------------------------
4-4-4-4-4-4-4-4-----------------4-4-4-4-4-4-4-4-----------------
----------------2-2-2-2-2-2-2-2-----------------2-2-2-2-2-2-2-2-


Cortes


-------------
-------------
-------------
3--5--1--1--3


vuelve el tapping del principio


-----15---15---------15---15---------14---14---------14---14---
--14---------14---14--------14----13---------13---13---------13
--------------------------------8-------8-------8-------8------
8-------8-------8-------8--------------------------------------


-----15---15---------15---15---------14---14---------14---14---
--14---------14---14--------14----13---------13---13---------13
--------------------------------8-------8-------8-------8------
8-------8-------8-------8--------------------------------------


Cortes


-------------
-------------
-------------
3--5--1--1--3


-----15---15---------15---15---------14---14---------14---14---
--14---------14---14--------14----13---------13---13---------13
--------------------------------8-------8-------8-------8------
8-------8-------8-------8--------------------------------------


-----15---15---------15---15---------14---14---------14---14---
--14---------14---14--------14----13---------13---13---------13
--------------------------------8-------8-------8-------8------
8-------8-------8-------8--------------------------------------


Cortes


-------------
-------------
-------------
3--5--1--1--3


Final

--------------------------------
----2--------------------2-3-5-5
3-5---3--5-3-------3-5-7--------
-------------3-0-3--------------


Espero que os haya servido, saludos
Suggest correction
Give kudos to tab author, rate the tab!
1 2 3 4 5
comments
print report bad tab
guest
You may want to rate the tab now too:
select rating
Wanna post a correction for this tab? Suggest correction