Oops, an error
Loading. Please wait.

No Me Des La Brasa Chords

73 views 1 this week
no commentswrite comment
1 2 3 4 5
3 more votes to show rating
add to favorites
launch autoscroll
font size
0
reset
transpose
0
reset
simplify chords
display chords
guitar tuner
Autoscroll
slow
fast
+/-
esc
set tempo
stop
Help us to improve Ultimate-Guitar.com Take our survey!
×
   Intro:
    d#---------------------
    a#---------------------
    f#--444-3~~~-444-3~~~--
    c#--444-3~~~-444-3~~~--
    g#--222-1~~~-222-1~~~--
    d#---------------------

       (------x3-------)
    d#---------------------------------------
    a#---------------------------------------
    f#--------------------444-3~~~-444-3~~~--
    c#--4/555-4/555-4/5---444-3~~~-444-3~~~--
    g#--4/555-4/555-4/5---222-1~~~-222-1~~~--
    d#--2/333-2/333-2/3---------------------- (x2)

 (La guitarra hace esto en el verso con efecto)

       (-x12-)
    d#-------------------------------
    a#---8h9-------------------------
    f#------------444-3~~~-444-3~~~--
    c#------------444-3~~~-444-3~~~--
    g#------------222-1~~~-222-1~~~--
    d#-------------------------------
No me des la brasa, no me des la brasa
no me comas la oreja chaval
Que estas poseído por la exaltación de la amistad
Y no pienses que to es tan fácil,
no pienses que to es tan bonito
Chiquillo estas poseído!!!

D5          C5
CIERRA YA EL PICO
      F5            B5 A#5
Y DEJAME PONERME A GUSTO
D5      C5         F5
QUE AL FINAL VAS A PAGAR LAS COPAS
        B5         A#5
Y ESCONDIENDOTE EN LOS ARBUSTOS

(Igual ke al principio, desde la Intro hasta el coro)
No me des la brasa, no me des la brasa
no me comas la oreja chaval
Que estas poseído por la exaltación de la amistad
Y no pienses que to es tan fácil
no pienses que to es tan bonito
Chiquillo tu estas poseído!!!

 D5           C5                   F5
Y no me des la brasa, que hablar por hablar,
           B5   A#5       D5
la exaltación nocturna te deja en mal lugar.
C5                     F5
Ya no vocalizas, no me comas la oreja chaval,
 B5              A#5
aligera pa tu casa y que te aguante tu vieja mamona.

(PARTE CHUSTA Y ATANAI) (No la he sacado)

    d#---------------------------------------------------
    a#---------------------------------------------------
    f#---------------------------------------------------
    c#--5--4--33---55--4--33---5--4--33---55--4--xx3~~~--
    g#--5--4--33---55--4--33---5--4--33---55--4--xx3~~~--
    d#--3--2--11---33--2--11---3--2--11---33--2--xx1~~~--

       (------x3-------)
    d#---------------------------------------
    a#---------------------------------------
    f#--------------------444-3~~~-444-3~~~--
    c#--4/555-4/555-4/5---444-3~~~-444-3~~~--
    g#--4/555-4/555-4/5---222-1~~~-222-1~~~--
    d#--2/333-2/333-2/3---------------------- (x2)

       (-x12-)
    d#-------------------------------
    a#---8h9-------------------------
    f#------------444-3~~~-444-3~~~--
    c#------------444-3~~~-444-3~~~--
    g#------------222-1~~~-222-1~~~--
    d#-------------------------------

No me des la brasa no me des la brasa
no me comas la oreja chaval
no veas si eres pesao, me cuentas lo mismo con el morao
ralajate, relajate, relajate...abajate, de la parra shava'
Cállate mamona' que te endiño una masca?.

D5           C5                   F5
Y no me des la brasa, que hablar por hablar,
           B5   A#5       D5
la exaltación nocturna te deja en mal lugar.
C5            F5           B5    A#5
Ya no vocalizas, que paliza... me estan dando.
D5               C5   F5   B5  A#5
No puedo massss!!!!!!!!!
D5                                   C5
Y si me pongo violento es porke ya estoy loco
                            F5
No es ke me coma el talento, me esta dando algo.
B5                A#5
Enchufarte un ante? tio guarro.

 otra tablatura de ofunkillo... espero ke las disfruten asi como yo, ocupando mi tiempo
libre, disfrute el tema.... la realidad, escuche el tema mas de 7 veces...
                               visiten mi web.... 
Suggest correction
Give kudos to tab author, rate the tab!
1 2 3 4 5
comments
print report bad tab
guest
You may want to rate the tab now too:
select rating
Wanna post a correction for this tab? Suggest correction