Oops, an error
Loading. Please wait.

Nos Vamos Pal Keli Bass Tab

464 views 9 this week
no commentswrite comment
1 2 3 4 5
3 more votes to show rating
add to favorites
launch autoscroll
font size
0
reset
guitar tuner
×
Best way to learn
"Nos Vamos Pal Keli"
Autoscroll
slow
fast
+/-
esc
set tempo
stop
-18/19-19--12/13/12/13/12/13/ ----
-17/18-18--11/12/11/12/11/12/ ----
----------------------------------
----------------------------------

NOS VAMOS PAL KELLY

Slap

-9h7-7-----9------7------
-------7h9----5h7-------5
--------------------5h7--
-------------------------

NOS VAMOS PAL KELLY

Slap

---6-----7-----8-----9-----8-----7--6--
---------------------------------------
-4---5-5---6-6---7-7---6-6---5-5-------4
---------------------------------------


Slapeo con Javi Marshiano


------7----------------------7----------
--------------------5----------------5--
----5--5------5-5-7--------5---5-------7
0-0-------0-0----------0-0-------0-0----


------7----------------------7----------
--------------------5------------------5
----5--5------5-5-7--------5---5---5-7--
0-0-------0-0----------0-0-------0------


------7----------------------7------7-----7--
--------------------5---------------------7-5
----5--5------5-5-7--------5---5--5---5-7----
0-0-------0-0----------0-0-------------------


------7----------------------7------7-----------
--------------------5---------------------------
----5--5------5-5-7--------5---5--5---4-4-3-3-2-
0-0-------0-0----------0-0----------------------


Empieza a cantar andreas (1ª estrofa)

------------------------------------------------
----------------5------------------------5---5--
--7----4-4-4-4----5-5-7-7----7---4-4-4-4---5---7
0---0----------------------0---0----------------

                                        armonico
----------------------------------------5-------
-----------------5--------------------5-5-------
--7---4-4-4-4------7-5----7---4-4-4-4-----------
0---0-------------------0---0-------------------

--------------------------------------------
--------------5---5-------------------------
--7---4-4-4-4---5---7/ ----7---4-4-4-4--------
0---0--------------------0---0---------4-5-6-7

--------------------------------------------6------6
---------------5--5-----------------------5------5--
--7---4-4-4-4-------7-5----7---4-4-4-4--7------7----
0---0--------------------0---0----------------------


vuelve el eslapeo pero esta vez con el estribillo, es lo
mismo que el slap del principio, tiene algun cambio pero no es significatibo


------7----------------------7----------
--------------------5----------------5--
----5--5------5-5-7--------5---5-------7
0-0-------0-0----------0-0-------0-0----


------7---------------------7------7-6-------6-4-------4
--------------------5-----------------------------------
----5--5------5-5-7----------X-X-X-----X-X-X-----X-X-X--
0-0-------0-0----------0-0------------------------------


------7----------------------7----------
--------------------5----------------5--
----5--5------5-5-7--------5---5-------7
0-0-------0-0----------0-0-------0-0----


------7----------------------7------7-----------
--------------------5---------------------------
----5--5------5-5-7--------5---5--5---4-4-3-3-2-
0-0-------0-0----------0-0----------------------


vuelve a cantar solo andreas (2ª estrofa)


--------------------------------------------
--------------5---5-------------------------
--7---4-4-4-4---5---7/ ----7---4-4-4-4--------
0---0--------------------0---0---------4-5-6-7


--------------------------------------------6-----
---------------5--5-----------------------5---5---
--7---4-4-4-4-------7-5----7---4-4-4-4--7-------7/
0---0--------------------0---0--------------------


----------------------------------------------
-------------------------------------5---5----
--7---4-4-4-4------------7---4-4-4-4---5---7/
0---0---------4-5-6-7--0---0------------------


------------------------------------------------------
------------------------------------------------------
--7---4-4-4-4--------------------------4-4-5-5-6-6-7-7
0---0---------4-5-6-7--4-4-5-5-6-6-7-7----------------


Vuelve el estribillo (nos vamos pal kelly...)


------7----------------------7----------
--------------------5----------------5--
----5--5------5-5-7--------5---5-------7
0-0-------0-0----------0-0-------0-0----


------7----------------------7------7-----6-----4
--------------------5----------------------------
----5--5------5-5-7--------5---5--5---4-4---2-2--
0-0-------0-0----------0-0-----------------------


------7----------------------7----------
--------------------5----------------5--
----5--5------5-5-7--------5---5-------7
0-0-------0-0----------0-0-------0-0----


------7----------------------7------7-----------
--------------------5---------------------------
----5--5------5-5-7--------5---5--5---4-4-3-3-2-
0-0-------0-0----------0-0----------------------


la parte del Solo de javi marshiano con pepe


---7----------7-----7--------7----------7-----7
-----------------------------------------------
------------5---5-5--------5---5------5---5-5--
0----0--0-0------------0-0--------0-0----------


------7----------7-----7--------7-------7---7---7---7
-----------------------------------------------------
----5---5------5---5-5--------5---5--5----5---5---5--
0-0--------0-0------------0-0------------------------


------7----------7-----7--------7------7-----7---7
--------------------------------------------------
----5---5------5---5-5--------5---5--5---5-5---5--
0-0--------0-0------------0-0---------------------


------7----------7-----7--------7--------7--------7--
-------------------------------------5-5---5--5-5---5
----5---5------5---5-5--------5---5------------------
0-0--------0-0------------0-0------------------------


Se queda solo Pepe y andreas (Nos vamos nos vemos killo nos vamos nos vemos...)

--------7-----7-----7------7---------7--------7---
----5---------------------------------------------
5h7---5---5-5---5-5----------5---5-5---5--5-5----5
-----------------------0-0-----0------------------

--------7----------7-----7--------7------------------------
--5-------------------------5h7-7---4h5-5-5-4h5-5-5--------
------5---5------5---5-5----------------------------5h7-7-7
0---0--------0-0-------------------------------------------


------7----------7-----7--------7----------7-----7
--------------------------------------------------
----5---5------5---5-5--------5---5------5---5-5--
0-0--------0-0------------0-0--------0-0----------


------7----------7-----7------7-----------------
--------------------------7-9---9-7----7--------
----5---5------5---5-5--------------10---10-7-10
0-0--------0-0----------------------------------


Estribillo de nuevo (nos vamos pal kely...)

------7----------------------7---------7-----7
--------------------5--------------------------
----5--5------5-5-7--------5---5-----5---5-5--
0-0-------0-0----------0-0-------0-0-----------


------7------------------7-7---7-7--
--------------------5--------5-----5
----5--5------5-5-7-----------------
0-0-------0-0----------0------------


------7----------------------7---------7-----7
--------------------5--------------------------
----5--5------5-5-7--------5---5-----5---5-5--
0-0-------0-0----------0-0-------0-0-----------


------7----------------------7------7---7---7--
--------------------5--------------------------
----5--5------5-5-7--------5---5--5---5---5---5
0-0-------0-0----------0-0---------------------


Riff final, siempre esta en Mi

-----------------------                                       ----------------
-----------------------                                       ----------------
-----------------------Etc , pero hace una variante como esta 5-5-4-4-2-2-0-0-
0-0-0-0-0-0-0-0-0-0-0-0                                       ----------------


y final


-----------------
-----------------
--------4-5-6-7--
4-5-6-7---------0


Espero que os sirva de ayuda esta tab, me ha resultado
muy dificl de sacar dado por las multiples combinaciones de funk
de Pepe (en el video que subo podeis ver mas detalles), se que no esta
100 por 100 perfecta pero desde luego que es para mi juicio
una buena guia, saludos y suerte :D
Suggest correction
Give kudos to tab author, rate the tab!
1 2 3 4 5
comments
print report bad tab
guest
You may want to rate the tab now too:
select rating
Wanna post a correction for this tab? Suggest correction