Oops, an error
Loading. Please wait.

O'funk'illo Groove Tab

158 views 3 this week
no commentswrite comment
1 2 3 4 5
3 more votes to show rating
add to favorites
launch autoscroll
font size
0
reset
how to read this tab
guitar tuner
×
Best way to learn
"O'funk'illo Groove"
Autoscroll
slow
fast
+/-
esc
set tempo
stop
MIm (con wa-wa)
O'funk'illo una manera de flipar
O'funk'illo nada nos puede parar
O'funk'illo na ma' queremos tocar
toda la noche sin descansar

O'funk'illo es pura diversion
O'funk'illo un bailecito fankilon
O'funk'illo toda la caña canijo
y tenemos el gran pepino

(Avanza desde Fa# hasta La)
   FA#                LA
Y a las cinco de la madrugada

    SI5   DO#5    RE5  RE#5
   e-----------------------------------------------
   b-----------------------------------------------
   g---4------6-------7----8---------9-------------
   d---4------6-------7----8---------9-67~~8-9/----
   a---2------4-------5----6---------7-67~~8-9/----
   e-----------------------------------45~~6-7/----
   Llegando a tu portal

Coro                           RE5   MI5
   e--------------------------------------------
   b--------------------------------------------
   g---------------------------7-7----9/--------
   d---------------------------7-7----9/--------
   a---------------------------5-5----7/--------
   e--------------------------------------------
 'Quillo que es lo que pasa
  cuando llego a tu casa
  siempre hay gana de guassa
  y yo no paro de cantar

MIm (con wa-wa)
O'funk'illo pepe, java y joaquinito
O'funk'illo y de triana este suisso
O'funk'illo nosotro nunca dormimos
pero si hay que armarla, la armamo fijo!!

O'funk'illo na' ma' queremos divertirnos
O'funk'illo y salirnos del pellejo
O'funk'illo 'argo que viene de dentro
de dentro, un sentimiento verdadero

(Avanza desde Fa# hasta La)
   FA#5                LA5
Y a las cinco de la madrugada

    SI5   DO#5    RE5  RE#5
   e-----------------------------------------------
   b-----------------------------------------------
   g---4------6-------7----8---------9-------------
   d---4------6-------7----8---------9-67~~8-9/----
   a---2------4-------5----6---------7-67~~8-9/----
   e-----------------------------------45~~6-7/----
   Llegando a mi portal

Coro                           RE5   MI5
   e--------------------------------------------
   b--------------------------------------------
   g---------------------------7-7----9/--------
   d---------------------------7-7----9/--------
   a---------------------------5-5----7/--------
   e--------------------------------------------
 'Quillo que es lo que pasa
  cuando llego a tu casa
  siempre hay gana de guassa
  y yo no paro de cantar

SOL
Todo el mega vassilando... O'funk'illo
LA
la peña embrutessia y chillando... O'funk'illo
LA#
todos paranoicos y flipando... O'funk'illo
SI
o'o'o'...

Mim (con Wa-wa)
O'funk'illo una manera de flipar
O'funk'illo nada nos puede parar
O'funk'illo na ma' queremos tocar
toda la noche sin descansar

O'funk'illo es pura diversion
O'funk'illo un bailecito fankilon
O'funk'illo toda la caña canijo
y tenemos el gran pepino

Precoro
   e----------------
   b----------------
   g--9-------------
   d--9-67~~8-9/----
   a--7-67~~8-9/----
   e----45~~6-7/----

Coro                           RE5   MI5

   e--------------------------------------------
   b--------------------------------------------
   g---------------------------7-7----9/--------
   d---------------------------7-7----9/--------
   a---------------------------5-5----7/--------
   e--------------------------------------------
 'Quillo que es lo que pasa
  cuando llego a tu casa
  siempre hay gana de guassa
  y yo no paro de cantar O'funk'illo!

   e----------------------------------------------
   b----------------------------------------------
   g-------------------12-------------------------
   d-12-14-12-14-12-14----12-14-12-14-12--11-12---
   a----------------------------------------------
   e---------------------------------------------- (x2)

   e----------------------------------------------
   b-------------------13-------------------------
   g-12-14-12-14-12-14----12-14-12-14-12--11-12---
   d----------------------------------------------
   a----------------------------------------------
   e----------------------------------------------

   e-------------------12-------------------------
   b-12-14-12-14-12-14----12-14-12-14-12--11-12---
   g----------------------------------------------
   d----------------------------------------------
   a----------------------------------------------
   e----------------------------------------------

Final (-------x4--------)
   e----------------------------------------------
   b----------------------------------------------
   g--10-7-8-9---10-7-8-9----9--------------------
   d--10-7-8-9---10-7-8-9----9-67~~8-9/------2~~--
   a---8-5-6-7----8-5-6-7----7-67~~8-9/------2~~--
   e---------------------------45~~6-7/------0~~--
Suggest correction
Give kudos to tab author, rate the tab!
1 2 3 4 5
comments
print report bad tab
guest
You may want to rate the tab now too:
select rating
Wanna post a correction for this tab? Suggest correction