Oops, an error
Loading. Please wait.

Que La Voy A Liar Tab

36 views 3 this week
no commentswrite comment
1 2 3 4 5
3 more votes to show rating
add to favorites
launch autoscroll
font size
0
reset
how to read this tab
guitar tuner
Autoscroll
slow
fast
+/-
esc
set tempo
stop
Help us to improve Ultimate-Guitar.com Take our survey!
×
Intro y versos
   e--8~~8--------8-------8-----------8----
   b--7~~7-7---7~~7-7---7~~7-7-7---7~~7-7--
   g-------x---6~~--x---6~~--x-x---6~~--x--
   d---------------------------------------
   a---------------------------------------
   e---------------------------------------

Ya no se por qué estoy aquí
ni como me he de comportar
no entiendo nada estoy confuso
y no soporto toda esta ansiedad

(Acompaña al verso detrás del punteo)
   e--------------------------------
   b--------------------------------
   g--------------------------------
   d--777777777777777777777777777---
   a--777777777777777777777777777---
   e--555555555555555555555555555---

Es mejor no hacer preguntas
seguir la corriente, dejarte llevar
que vida no hay mas que una
y cuando menos te lo esperas
te la pueden quitar

Coro:  (------x2-----)
   e------------------------------------
   b------------------------------------
   g----7~~~5~~~7~~~8-------------------
   d----7~~~5~~~7~~~8----------2~~~~~~--
   a----5~~~3~~~5~~~6----------2~~~~~~--
   e---------------------------0~~~~~~--
     No se na?,me da igual

(De la misma forma que al principio)
Toda esa información
que bombardean, sin cesar
no dejare que me vuelva loco
no parare nunca de luchar

Nos utilizan, nos manipulan
nos dan por el ano hasta sangrar
pero esta vez será diferente
solo se que la voy a liar

Coro:    (------x2-----)                   Mi5
   e--------------------------------------------------------
   b--------------------------------------------------------
   g------7~~~5~~~7~~~8-------------------------------------
   d------7~~~5~~~7~~~8----------2~~22~~22~~22--22~~22~~22--
   a------5~~~3~~~5~~~6----------2~~22~~22~~22--22~~22~~22--
   e-----------------------------0~~00~~00~~00--00~~00~~00--
      Yo no se, no se na?, me da igual
      que la voy a liar... (x5)

(De la misma forma que al principio)
Ya no se por qué estoy aquí
ni como me he de comportar
no entiendo nada estoy confuso
y no soporto toda esta ansiedad

Es mejor no hacer preguntas
seguir la corriente, dejarte llevar
que vida no hay mas que una
y cuando menos te lo esperas
te la pueden quitar

Coro:    (------x2-----)              Mi5
   e---------------------------------------------
   b---------------------------------------------
   g------7~~~5~~~7~~~8--------------------------
   d------7~~~5~~~7~~~8----------222~~2~~2~~2----
   a------5~~~3~~~5~~~6----------222~~2~~2~~2----
   e-----------------------------000~~0~~0~~0----
     Yo no se, no se na?, nohh!! me da igual
     Solo se que la voy a liar...

Yo solo se, que la voy a liar,
yo solo se que la voy a liar...
que la voy a liar, que la voy a liar...

espero ke la suben a la web.... pa' ke me digan si esta bien... o le falta algo
Suggest correction
Give kudos to tab author, rate the tab!
1 2 3 4 5
comments
print report bad tab
guest
You may want to rate the tab now too:
select rating
Wanna post a correction for this tab? Suggest correction