Oops, an error
Loading. Please wait.

Vivimos Tiempos Perros Tab

64 views 1 this week
no commentswrite comment
1 2 3 4 5
3 more votes to show rating
add to favorites
launch autoscroll
font size
0
reset
how to read this tab
guitar tuner
Autoscroll
slow
fast
+/-
esc
set tempo
stop
Help us to improve Ultimate-Guitar.com Take our survey!
×
INTRO: MI
   e----------222222223333333322222222--
   b--00000000000000000000000000000000--
   g--11111111111111111111111111111111--
   d--22222222222222222222222222222222--
   a--22222222222222222222222222222222--
   e------------------------------------

Coro:  VIVIMOS TIEMPOS PERROS
   e-------------------------------------
   b-------------------------------------
   g-------------------------------------
   d----5-----------------5--------------
   a-5h7-5h7---2h4~4---5h7-5h7---2h4~4---
   e--------0-------3---------0-------3--

MI
...en un mundo desquiciado...muchos pasan hambre
algunos se j´inchan a videojuegos...y mientras corre la sangre
en un mundo dividido..por la religión...entre ricos y pobres
¿existe una solución?

Coro:  VIVIMOS TIEMPOS PERROS

MI
...sed de venganza...orgullo herido
ojo por ojo-diente por diente...el odio acabará con la gente
tragedia humana es tragedia hermana
y no más muertes...cueste lo que cueste

Coro:  VIVIMOS TIEMPOS PERROS

     SI5  DO5  SI5  LA5
   e-----------------------
   b-----------------------
   g--44---55---44---22----
   d--44---55---44---22----
   a--22---33---22---00----
   e----------------------- (x2)

SI5       DO5        SI5          LA5
Cuando crece el odio pierdes la razón
SI5     DO5     SI5          LA5
Vives el agobio sed de destrucción

MI
...caer en la propaganda sin pensar por uno mismo
es dejarse llevar por cualquier fanatismo
te hacen creer en un falso destino
sigue tu propia ilusión...tu propio camino

Coro:  VIVIMOS TIEMPOS PERROS

SI5       DO5        SI5          LA5
Cuando crece el odio pierdes la razón
SI5     DO5     SI5          LA5
Vives el agobio sed de destrucción

   e---------------------------
   b---------------------------
   g---------------------------
   d---------------------------
   a--7-9-7-10-9--7-9-7-10-9---
   e---------------------------
VIVIMOS TIEMPOS PERROS-TIEMPOS MUERTOS
UN MUNDO LOCO Y SIGUE SIENDO NUESTRO
TIEMPOS PERROS-TIEMPOS MUERTOS
UN MUNDO LOCO Y SIGUE SIENDO VUESTRO
TIEMPOS PERROS-TIEMPOS MUERTOS
UN MUNDO DESQUICIAO´.....

SI5  DO5  SI5  LA5
   e-----------------------
   b-----------------------
   g--44---55---44---22----
   d--44---55---44---22----
   a--22---33---22---00----
   e----------------------- (x2)

SI5       DO5        SI5          LA5
Cuando crece el odio pierdes la razón
SI5     DO5     SI5          LA5
Vives el agobio sed de destrucción

VIVIMOS TIEMPOS PERROS
   e-------------------------------------
   b-------------------------------------
   g-------------------------------------
   d----5-----------------5--------------
   a-5h7-5h7---2h4~4---5h7-5h7---2h4~4---
   e--------0-------3---------0-------3--

Coro:  VIVIMOS TIEMPOS PERROS

  Final
   e----------222222223333333322222222--
   b--00000000000000000000000000000000--
   g--11111111111111111111111111111111--
   d--22222222222222222222222222222222--
   a--22222222222222222222222222222222--
   e------------------------------------

  Esta es otra de mis colaboraciones de O'Funk'illo,
 cualquier consulta me escriben a kshimba_funk@
    ahhhh.... visiten mi pagina 
Suggest correction
Give kudos to tab author, rate the tab!
1 2 3 4 5
comments
print report bad tab
guest
You may want to rate the tab now too:
select rating
Wanna post a correction for this tab? Suggest correction