Oops, an error
Loading. Please wait.

Hanggang Ngayon tab

573 views 6 this week
no commentswrite comment
1 2 3 4 5
3 more votes to show rating
add to favorites
×
Save as Personal and add changes to this tab that will be seen only by you. Learn more ›
×
You can save this tab as Personal to edit and correct it or add notes. All changes will be seen only by you. Learn more »
launch autoscroll
font size
0
reset
how to read this tab
guitar tuner
edit
Autoscroll
slow
fast
+/-
esc
set tempo
stop
Author
Difficulty
Hanggang Ngayon by Ogie and Regine

Tabs written and arranged by Edwin-E (in YouTube)
Blog: http://guitarplucking.blogspot.com
Facebook Page: EGuitar
Note: this tab is just a portion of the song

Video Tutorial: http://www.youtube.com/watch?v=VdNgjqw0DEw

Intro

E|-------0--1--3-----0--------------------3---|
B|--1/3-----------3-----3--1-----------1--3---|
G|----------------------------------2-----4---|
D|-------------------------------3--------5---|
A|-------3--------------------3-----------5---|
E|----------------3--------1--------------3---|
C-G-F-G

E|--0--0--0--0--0--0--0--1--0--------|
B|--1--------------------------3--3--|
G|--0--------------------------------|
D|--2--------------------------------|
A|--3--------------------------------|
E|--------------------------3--------|
C                    G
Bakit di magawang limutin ka


E|--------0--1--0-----------------------------1--|
B|--3--3-----------3-----1-----1--1--1--3-----1--|
G|--3-----------------2-----2--------------2--2--|
D|--3-----------------------------------------3--|
A|--1--------------------3--------------------3--|
E|-----------------------1--------------------1--|
Bb                F
Bawat sandali’y ika’y naaalala


E|--1-------------------------------0--|
B|--1--1--1--1--0--1/3--------3--0--1--|
G|--2-------------------------------2--|
D|--0-------------------------------2--|
A|-------------------------2--------0--|
E|----------------------0--------------|
Dm7    G         Em7     Am
Tangi kong dasal sa Maykapal

E|--0--0--1--0--------------------3--|
B|--------1-----1-----3--------3--3--|
G|--------2--------2--------3-----4--|
D|--------0--------------3--------5--|
A|--------------------1-----------5--|
E|--------------------------------3--|
Dm7               Bb G
Makapiling kang muli


E|--0--0--0--0--0--0--0--1--0--------|
B|--1--------------------------3--3--|
G|--0--------------------------------|
D|--2--------------------------------|
A|--3--------------------------------|
E|--------------------------3--------|
C                     G
Bakit di ko maalis sa isip ko


E|--------0--1--0-----------------------------1--|
B|--3--3-----------3-----1-----1--1--1--3-----1--|
G|--3-----------------2-----2--------------2--2--|
D|--3-----------------------------------------3--|
A|--1--------------------3--------------------3--|
E|-----------------------1--------------------1--|
Bb                 F
Ikaw ang laging laman ng puso ko


E|--1-------------------------------3--0--|
B|--1--1--1--1--1--0--1/3--------3--------|
G|--2----------------------------------2--|
D|--0----------------------------------2--|
A|----------------------------2--------0--|
E|-------------------------0--------------|
Dm7     G            Em7       Am
Kahit pilitin ko damdamin magbago


E|--0--1--1--1--1--1--3--3/5--1--3--|
B|-----1-------------------------3--|
G|-----2-------------------------4--|
D|-----0-------------------------5--|
A|-------------------------------5--|
E|-------------------------------3--|
Dm7                       G
Ikaw pa rin ang hinahanap ko

Chorus:

E|--0--1--3--3--------0--|
B|--------------1-----1--|
G|-----------------0--0--|
D|--------------------2--|
A|-----------3-----------|
E|-----------------------|
             C
Hanggang ngayon


E|--0--3--3--3--5--5/6--5--3--1-----------1--|
B|----------------------------------------1--|
G|-------------------------------------2--2--|
D|----------------------------------3-----3--|
A|-----3-------------------------3--------3--|
E|----------------------------1-----------1--|
  C7                    F
Ikaw pa rin ang iniibig ko


E|--1--1--1--3--3/4--3--1--0--5--5/7--5--|
B|---------------------------------------|
G|---------------------------------------|
D|---------------------------------------|
A|-------------------------2-----0-------|
E|--1----------------------0-------------|
 Fm                            Em7    Am
Ikaw pa rin ang natatanging pangarap ko


E|-----1--3--------------------3--|
B|-----1-----1-----------------3--|
G|--2--2--------2-----------4--4--|
D|-----0-----------------5-----5--|
A|--------------------5--------5--|
E|-----------------3-----------3--|
Dm7        G
Ikaw lamang


E|--------------0--|
B|--3--1--0--1--1--|
G|--------------0--|
D|--------------2--|
A|-----------3--3--|
E|-----------------|
              C
Hangngang ngayon

            
            
Suggest correction
Creating personal tab
Creating personal tab
You can edit any tab online and save it as your Personal.

You can edit, replace or remove any tab part or add personal notes – all changes will be seen only by you.

Personal tabs can be accessed anytime from any device, even offline.
Learn more »
Give kudos to tab author, rate the tab!
1 2 3 4 5
comments
print report bad tab
guest
You may want to rate the tab now too:
select rating
Wanna post a correction for this tab? Suggest correction