Oops, an error
Loading. Please wait.

Lonely Neighbor What Am I To You tab

856 views 9 this week
2 commentsread comments
1 2 3 4 5
2 more votes to show rating
add to favorites
×
Save as Personal and add changes to this tab that will be seen only by you. Learn more ›
×
You can save this tab as Personal to edit and correct it or add notes. All changes will be seen only by you. Learn more »
launch autoscroll
font size
0
reset
how to read this tab
guitar tuner
edit
Autoscroll
slow
fast
+/-
esc
set tempo
stop
-------------------------------------------------------------------------------
                             SONG NAME - Band Name
-------------------------------------------------------------------------------
Tabbed by:Josh Fore
E-mail:

Tuning: Standard
Capo 4

  G9  D
   3  x
   2  5
   0  3
   0  0
   3  2
   3  0

Intro:     G9
E|----------3------------3------------3--------------------------------------|
A|---------------------------------------------------------------------------|
D|-------------0-0h2--------0-0h2--------0-0h2-------------------------------|
G|------------------0------------0------------0------------------------------|
B|--------------3----3-------3----3-------3----3-----------------------------|
e|---------------------------------------------------------------------------|


Verse 1     G9                   Em
E|----------3----------3----------0-----------0------------------------------|
A|---------------------------------------------------------------------------|
D|------------0-0h2------0-0h2-------2-0h2------2-0h2------------------------|
G|-----------------0----------0-----------0----------0-----------------------|
B|-------------3----3-----3----3------0----0-----0----0----------------------|
e|---------------------------------------------------------------------------|
    I would love to be your lonely neighbor

            G9                   Em
E|----------3----------3----------0-----------0------------------------------|
A|---------------------------------------------------------------------------|
D|------------0-0h2------0-0h2-------2-0h2------2-0h2------------------------|
G|-----------------0----------0-----------0----------0-----------------------|
B|-------------3----3-----3----3------0----0-----0----0----------------------|
e|---------------------------------------------------------------------------|
 The kind who asks you for a little sugar

       C              D          G9          Em         C            d              G9
E|-------------------------------3-----2-----0----------------------------------|
A|-----3------------5------------------------------------3-----------5----------|
D|-------2---2--------4---4--------0-----0-----2---2-------2---2-------3---3----|  Repeat
G|-------------0------------0--------0-----0---------0-----------0-----------0--| Chords for
B|---------0-----0------0-----0------------------0-----0-----0-----0-----0-----0|  Verse
e|------------------------------------------------------------------------------|
        You invite me in, grab the coffee from the tin I want you now, more than I did

Chorus (strummed)

 C                     G
Oh to dress up in your arms
 C                          G
Alone with nothing but our scars
 C                                 D              G
I know that she won't love like I love you like I love you
 C                       G
Oh well, Oh what am I to do
 C                       G
Oh well, Oh what am I to you


Bridge
 C                         G
You take all the time you need
 C                         G
I'm sitting here so patiently
 C                                D                             G
But if you're gonna take forever, I hope I live forever less a day
 C                                     G
Cause I can't live without you next to me
 C                                  G
No I can't live without you next to me




************************************

| /   slide up
| \   slide down
| h   hammer-on
| p   pull-off
| ~   vibrato
| +   harmonic
| x   Mute note
| b   Bend
| pb  Pre-bend
| br  Bend release
| pbr Pre-bend release
| brb Bend release bend

************************************
Suggest correction
Creating personal tab
Creating personal tab
You can edit any tab online and save it as your Personal.

You can edit, replace or remove any tab part or add personal notes – all changes will be seen only by you.

Personal tabs can be accessed anytime from any device, even offline.
Learn more »
Give kudos to tab author, rate the tab!
1 2 3 4 5
comments
print report bad tab
2 comments total.
0 reply
Noklu 10 Aug 02, 2015 11:54 AM

Lack of formatting. The tab is correct, just upside down.
Possibly because the tabber is a lefty. It still works but takes getting used to read.

0 reply
Noklu 10 Aug 02, 2015 11:54 AM

The tab is correct, just upside down...

man that took me a while to figure out!

guest
You may want to rate the tab now too:
select rating
Wanna post a correction for this tab? Suggest correction